Simply Red - For Your Babies Chords & Tabs

 

For Your Babies Chords & Tabs

Simply Red Chords & Tabs

Version: 1 Type: Tab

For Your Babies Tab

Simply red        for your babies 









intro

|-------------------------------------------5--------------------------------------------------------------|
|-----3/5--5-----3/5--5------3--2---3---------3/5---3---2--------------------------------------------|
|-----------------------------------------------------------------2---------------------------------------|
|---------------------------------------------------------------------------------------------------------|
|---------------------------------------------------------------------------------------------------------|
|---------------------------------------------------------------------------------------------------------|

[ Tab from: http://www.guitartabs.cc/tabs/s/simply_red/for_your_babies_tab.html ]
solo
|------------------------9---7----------7----9—9/7--7-----------------------------------------------------|
|-----3/5--5------5---------------5----------------------5------3/5--3--2----------------5----------------|
|-------------------------------------------------------------------------------2------2---------4/6--------|
|------------------------------------------------------------------------------------------------------------|
|------------------------------------------------------------------------------------------------------------|
|-----------------------------------------------------------------------------------------------------------|

|----7/9--7---5---7----9/12---12-------------12----12---------------------------------------------|
|----------------------------------------10------------------10/12-----10----------------------------|
|-------------------------------------------------------------------------------------------------------|
|------------------------------------------------------------------------------------------------------|
|------------------------------------------------------------------------------------------------------|
|------------------------------------------------------------------------------------------------------|

there u go, that’s the solo and the intro

there are some small fills, but they are easy to figure out. Its almost the same as the intro, but not quite, its just an order change in the notes.

Any changes that need 2 be made, e-mail me at nickey_sixx@hotmail.com