Simpliztick 341 - Too Blame Chords & Tabs

 

Too Blame Chords & Tabs

Simpliztick 341 Chords & Tabs

Version: 1 Type: Tab 0 ratings
1 star 2 stars 3 stars 4 stars 5 stars
comments

Too Blame Tab

Song:Too blame
Artist:Simpliztick 341
Tabbed by:Drew

Intro
--------------------------
--------------------------
--------------------------
-------7777------6666-----
--5555------6666----------
--------------------------4X

Verse one:
----------------------------------------------------
----------------------------------------------------
----------------------------------------------------
-----------------77------------------------77-------
----5---5------5---66---------5---5------5---66-----
--00--0---000-0-0-----------00--0---000-0-0---------3X

Chorus:
|----------------------|----------------------
|----------------------|----------------------
|*--------------------*|----------------------
|*-2---6666-5555-4444-*|*-2---6666-5555-4444-*
|--2---8888-7777-6666--|--2---8888-7777-6666--
|--0-------------------|--0-------------------3X

Verse two:
----------------------------------------------------
----------------------------------------------------
----------------------------------------------------
-----------------77------------------------77-------
----5---5------5---66---------5---5------5---66-----
--00--0---000-0-0-----------00--0---000-0-0---------3X

Chorus:
|----------------------|----------------------
|----------------------|----------------------
|*--------------------*|----------------------
|*-2---6666-5555-4444-*|*-2---6666-5555-4444-*
|--2---8888-7777-6666--|--2---8888-7777-6666--
|--0-------------------|--0-------------------3X

Bridge:
--------------------------
--------------------------
--------------------------
--------------------------
------2-5--4--------------
--0-3---------0-3-0-2^p0--2X

Solo:
------------------------------------------------------
--5-6---5-6---5-6---5-6------5-6---5-6---5-6---5-6----
------7-----7-----7-----7--------7-----7-----7-----7--
------------------------------------------------------
------------------------------------------------------
------------------------------------------------------

------787---------------------------------------------
--555-------5-6---5-6---5-6---5-6---5-6---5-6---5-6---
----------------7-----7-----7-----7-----7-----7-----7-
------------------------------------------------------
------------------------------------------------------
------------------------------------------------------2X

------------------------------------------------------
------787--5-6---5-6---5-6---5-6---5-6---5-6---5-6----
--555-----------7-----7-----7-----7-----7-----7-----7-
------------------------------------------------------
------------------------------------------------------
------------------------------------------------------2X

------787---------------------------------------------
--555-------5-6---5-6---5-6---5-6---5-6---5-6---5-6---
----------------7-----7-----7-----7-----7-----7-----7-
------------------------------------------------------
------------------------------------------------------
------------------------------------------------------2X

Bridge:
--------------------------
--------------------------
--------------------------
--------------------------
------2-5--4--------------
--0-3---------0-3-0-2^p0--2X
[ Tab from: http://www.guitartabs.cc/tabs/s/simpliztick_341/too_blame_tab.html ]
Solo2:
------------------------------------------------------
------------------------------------------------------
-----3---2h3-2---------3---2h3-2---------3---2h3-2-0--
--5----5-------5----5----5-------5--0-1----1----------
------------------------------------------------------
------------------------------------------------------

------------------------------------------------------
------------------------------------------------------
------3---2h3-2-0------2---2h3-2---------2---2h3-2----
---1----1-----------3----3-------3----3----3-------3--
------------------------------------------------------
------------------------------------------------------

--------------------------------------
--------------------------------------
-----3---3h5-3----------3---3h5-3-----
--5----5--------5----5----5--------5--
--------------------------------------
--------------------------------------

--------------------------------------------------
--------------------------------------------------
-----3----3----3----3----3----3----3----3----3----
--55---55---55---55---55---11---11---11---11---11-
--------------------------------------------------
--------------------------------------------------
p.m...............................................

-----------------------------------------------------
-----------------------------------------------------
-----2----2----2----2----2----5----5----3----3----3--
--33---33---33---33---33---55---55---55---55---55----
-----------------------------------------------------
----------------------------------------------------- 
p.m..................................................

--------------------------------------------------
--------------------------------------------------
-----3----3----3----3----3----3----3----3----3----
--55---55---55---55---55---11---11---11---11---11-
--------------------------------------------------
--------------------------------------------------

-----------------------------------------------------
-----------------------------------------------------
-----2----2----2----2----2----5----5----3----3----3--
--33---33---33---33---33---55---55---55---55---55----
-----------------------------------------------------
----------------------------------------------------- 

Chorus:
|----------------------|----------------------
|----------------------|----------------------
|*--------------------*|----------------------
|*-2---6666-5555-4444-*|*-2---6666-5555-4444-*
|--2---8888-7777-6666--|--2---8888-7777-6666--
|--0-------------------|--0-------------------3X

Outro:
--------------------------
--------------------------
--------------------------
-------7777------6666-----
--5555------6666----------
--------------------------4X

Verse one:
I hear guns burst all around me on my very own battlefield
Life rages torents of reality brought before my eyes
Casualities of forbidden roads and long forgotten strifes
You gotta roll with the pack or get lost behind

Verse two:
I can hear you screaming in my ear for help you want from me
I see you bleed and die as i lose my sanity
I can't pull myself away as I gaze deep inside your eyes
Empitness rages before me and threatens too steal my very soul

Chorus:
Sell your soul into misery and pain
My world crumbles into chaos, insane 
Who's the heck is to Blame?
Comments