Simpliztick 341 - Hollow Chords & Tabs

 

Hollow Chords & Tabs

Simpliztick 341 Chords & Tabs

Version: 1 Type: Tab 0 ratings
1 star 2 stars 3 stars 4 stars 5 stars
comments

Hollow Tab

Band-Simpliztick 341
Song-Hollow
Date-04/22/04
Tabbed by- Drew

------------------------------------------------------------------
------------------------------------------------------------------
------------------------------------------------------------------
----9--------9--------9--------9-------7------7-------7-------7---
--10-10---10--10---10--10---10--10---7--7---7---7---7---7---7---7-
0-------0--------0--------0--------0------0-------0-------0-------

----------------------------------------------------------------
----------------------------------------------------------------
----------------------------------------------------------------
---10------10------10-----10------9-------9---------9----9-12/9-
--7---7--7---7---7---7---7---7-10--10---10--10---10---10--------
0------0-------0-------0------0-------0--------0----------------

------------------------------------------------------------------
------------------------------------------------------------------
------------------------------------------------------------------
----9--------9--------9--------9-------7------7-------7-------7---
--10-10---10--10---10--10---10--10---7--7---7---7---7---7---7---7-
0-------0--------0--------0--------0------0-------0-------0-------

----------------------------------------------------------------
----------------------------------------------------------------
----------------------------------------------------------------
---10------10------10-----10------9-------9---------9----9-12/9-
--7---7--7---7---7---7---7---7-10--10---10--10---10---10--------
0------0-------0-------0------0-------0--------0----------------

------------------------------------------------------------------
------------------------------------------------------------------
------------------------------------------------------------------
----9--9--12-10-9----7-7-7-9-10----10-10-9-10-12-----9--9-12-10-9-
----10-10------------7-7-----------7--7--------------10-10--------
0-0-0--0---------0-0-0-0-------0-0-0--0---------0-0--0--0---------

-------------------------------------------------------------------
-------------------------------------------------------------------
-------------------------------------------------------------------
x-x-2-2----------x-x-2-2----------x-x-2-2----------x-x-2-2---------
x-x-2-2--7-------x-x-2-2--7-------x-x-2-2--7-------x-x-2-2--7------
x-x-0-0----6-5---x-x-0-0----6-5---x-x-0-0----6-5---x-x-0-0----6-5--

-------------------------------------------------------------------
-------------------------------------------------------------------
-------------------------------------------------------------------
x-x-4-4----------x-x-4-4----------x-x-4-4----------x-x-4-4---------
x-x-4-4----4-2---x-x-4-4----4-2---x-x-4-4----4-2---x-x-4-4----4-2--
x-x-2-2--2-------x-x-2-2--2-------x-x-2-2--2-------x-x-2-2--2------

-----7~~-10-9~~-7-9-10-/12^-10---------14-12-/17-15-14-12------
---7---------------------------12~~-15------------------------15-14
/9-----------------------------------------------------------------
-------------------------------------------------------------------
-------------------------------------------------------------------
-------------------------------------------------------------------

-----7~~-10-9~~-7-9-10-/12^-10---------14-12-/17-15-14-12------
---7---------------------------12~~-15------------------------15-14
/9-----------------------------------------------------------------
-------------------------------------------------------------------
-------------------------------------------------------------------
-------------------------------------------------------------------

-------------------------------------------------------------------
-------------------------------------------------------------------
x-x-2-2----------x-x-2-2----------x-x-2-2----------x-x-2-2---------
x-x-2-2--7-------x-x-2-2--7-------x-x-2-2--7-------x-x-2-2--7------
x-x-0-0----6-5---x-x-0-0----6-5---x-x-0-0----6-5---x-x-0-0----6-5--

-------------------------------------------------------------------
-------------------------------------------------------------------
-------------------------------------------------------------------
x-x-4-4----------x-x-4-4----------x-x-4-4----------x-x-4-4---------
x-x-4-4----4-2---x-x-4-4----4-2---x-x-4-4----4-2---x-x-4-4----4-2--
x-x-2-2--2-------x-x-2-2--2-------x-x-2-2--2-------x-x-2-2--2------

-15p12-12-14p12-12-15p12-12-14p12-15p12-17p12-15p12--14p12--15p12--
---------------------------------------------------12-----12-----12
-------------------------------------------------------------------
-------------------------------------------------------------------
-------------------------------------------------------------------
-------------------------------------------------------------------

14p12-15p12-17p12-15p12--14p12--15p12--14p12-15p12-17p12-
-----------------------12-----12-----12------------------
---------------------------------------------------------
---------------------------------------------------------
---------------------------------------------------------
---------------------------------------------------------

12h15-t>19-12h15-t>19-12h15-t>19-12h15-t>19-12h15-t>18-12h15-t>18-
------------------------------------------------------------------
------------------------------------------------------------------
------------------------------------------------------------------
------------------------------------------------------------------
------------------------------------------------------------------

-12h15-t>18-12h15-t>18-12h14-t>17-12h14-t>17-12h14-t>17-
--------------------------------------------------------
--------------------------------------------------------
--------------------------------------------------------
--------------------------------------------------------
--------------------------------------------------------

--12h14-t>17-12h14-t>19-12h14-t>17-12h14-t>19-12h14-t>17---------
-----------------------------------------------------------------
-----------------------------------------------------------------
-----------------------------------------------------------------
-----------------------------------------------------------------
-----------------------------------------------------------------

------------------------------------------------------------------
------------------------------------------------------------------
------------------------------------------------------------------
----9--9--12-10-9----7-7-7-9-10----10-10-9-10-12-----9--9-12-10-9-
----10-10------------7-7-----------7--7--------------10-10--------
0-0-0--0---------0-0-0-0-------0-0-0--0---------0-0--0--0---------
[ Tab from: http://www.guitartabs.cc/tabs/s/simpliztick_341/hollow_tab.html ]
------------------------------------------------------------------
------------------------------------------------------------------
------------------------------------------------------------------
----9--9--12-10-9----7-7-7-9-10----10-10-9-10-12-----9--9-12-10-9-
----10-10------------7-7-----------7--7--------------10-10--------
0-0-0--0---------0-0-0-0-------0-0-0--0---------0-0--0--0---------

------------------------------------------------------------------
12h15-t>19-12h15-t>19-12h15-t>19-12h15-t>19-12h15-t>18-12h15-t>18-
------------------------------------------------------------------
------------------------------------------------------------------
------------------------------------------------------------------
------------------------------------------------------------------

------------------------------------------------------------------
12h15-t>18-12h15-t>18-12h14-t>17-12h14-t>17-12h14-t>17-12h14-t>17-
------------------------------------------------------------------
------------------------------------------------------------------
------------------------------------------------------------------
------------------------------------------------------------------

--------------------------------------------12h15-t>19-12h15-t>19-
12h14-t>19-12h14-t>17-12h14-t>19-12h14-t>17-----------------------
------------------------------------------------------------------
------------------------------------------------------------------
------------------------------------------------------------------
------------------------------------------------------------------

12h15-t>19-12h15-t>19-12h15-t>19-12h15-t>19-12h15-t>18-12h15-t>18-
------------------------------------------------------------------
------------------------------------------------------------------
------------------------------------------------------------------
------------------------------------------------------------------
------------------------------------------------------------------

12h15-t>18-12h15-t>18-12h14-t>17-12h14-t>17-12h14-t>17-12h14-t>17-
------------------------------------------------------------------
------------------------------------------------------------------
------------------------------------------------------------------
------------------------------------------------------------------
------------------------------------------------------------------

12h14-t>19-12h14-t>17-12h14-t>19-12h14-t>17-12h15p15///-----------
--------------------------------------------------------15^(full)-
------------------------------------------------------------------
------------------------------------------------------------------
------------------------------------------------------------------
------------------------------------------------------------------

------------------------------------------------------------------
12h15-t>19-12h15-t>19-12h15-t>19-12h15-t>19-12h15-t>18-12h15-t>18-
------------------------------------------------------------------
------------------------------------------------------------------
------------------------------------------------------------------
------------------------------------------------------------------

------------------------------------------------------------------
12h15-t>18-12h15-t>18-12h14-t>17-12h14-t>17-12h14-t>17-12h14-t>17-
------------------------------------------------------------------
------------------------------------------------------------------
------------------------------------------------------------------
------------------------------------------------------------------

--------------------------------------------12h15-t>19-12h15-t>19-
12h14-t>19-12h14-t>17-12h14-t>19-12h14-t>17-----------------------
------------------------------------------------------------------
------------------------------------------------------------------
------------------------------------------------------------------
------------------------------------------------------------------

------------------------------------------------------------------
------------------------------------------------------------------
------------------------------------------------------------------
x-x-2-2----------x-x-2-2----------x-x-2-2----------x-x-2-2--------
x-x-2-2--7-------x-x-2-2--7-------x-x-2-2--7-------x-x-2-2--7-----
x-x-0-0----6-5---x-x-0-0----6-5---x-x-0-0----6-5---x-x-0-0----6-5-

------------------------------------------------------------------
------------------------------------------------------------------
------------------------------------------------------------------
x-x-4-4----------x-x-4-4----------x-x-4-4----------x-x-4-4--------
x-x-4-4----4-2---x-x-4-4----4-2---x-x-4-4----4-2---x-x-4-4----4-2-
x-x-2-2--2-------x-x-2-2--2-------x-x-2-2--2-------x-x-2-2--2-----

----14-19-14--------15-14---------------------------------------
-15----------15-----------15-----17-15-14-----------------------
----------------16-----------14-----------16-14--14-16----------
-------------------------------------------------------14--14-16
----------------------------------------------------------------
----------------------------------------------------------------

-------------------------19-17-15--15-17-14-------
-------14-15----14-15-14--------------------15----
-14-16-------16--------------------------------16-
--------------------------------------------------
--------------------------------------------------
--------------------------------------------------

------------------------------------------------------------------
------------------------------------------------------------------
------------------------------------------------------------------
----9--------9--------9--------9-------7------7-------7-------7---
--10-10---10--10---10--10---10--10---7--7---7---7---7---7---7---7-
0-------0--------0--------0--------0------0-------0-------0-------

----------------------------------------------------------------
----------------------------------------------------------------
----------------------------------------------------------------
---10------10------10-----10------9-------9---------9----9-12/9-
--7---7--7---7---7---7---7---7-10--10---10--10---10---10--------
0------0-------0-------0------0-------0--------0----------------

------------------------------------------------------------------
------------------------------------------------------------------
------------------------------------------------------------------
----9--------9--------9--------9-------7------7-------7-------7---
--10-10---10--10---10--10---10--10---7--7---7---7---7---7---7---7-
0-------0--------0--------0--------0------0-------0-------0-------

----------------------------------------------------------------
----------------------------------------------------------------
----------------------------------------------------------------
---10------10------10-----10------9-------9---------9----9-12/9-
--7---7--7---7---7---7---7---7-10--10---10--10---10---10--------
0------0-------0-------0------0-------0--------0----------------
Comments