Simpliztick 341 - Forlorn World Chords & Tabs

 

Forlorn World Chords & Tabs

Simpliztick 341 Chords & Tabs

Version: 1 Type: Tab 0 ratings
1 star 2 stars 3 stars 4 stars 5 stars
comments

Forlorn World Tab

Artist:Simpliztick
Song:Forlorn world
Tabbed by: Drew

Intro:

-------------------------------------------------------
-------------------------------------------------------
--------4-----0---------4------------------4--6^p4-----
-----6-----6---------6-----6--0---------6-----------4--
--4---------------4------------------4-----------------
-------------------------------------------------------2X

Verse one:
-------------------------------------------------
-------------------------------------------------
----66666666p-4h-666---------4--6^p4-------------
----66666666p-4h-666-----4-6---------6-----------
----44444444p-4h-444-----------------------------
-------------------------------------------------4X

Chorus:
------------------------------------------------------
------------------------------------------------------
-------------------44444444---------------------------
-66666666-22222222-44444444-44444444------------------
-66666666-22222222-22222222-44444444------------------
-44444444-00000000----------22222222------------------4X

Verse two:
-------------------------------------------------
-------------------------------------------------
----66666666p-4h-666---------4--6^p4-------------
----66666666p-4h-666-----4-6---------6-----------
----44444444p-4h-444-----------------------------
-------------------------------------------------4X
[ Tab from: http://www.guitartabs.cc/tabs/s/simpliztick_341/forlorn_world_tab.html ]
Chorus:
------------------------------------------------------
------------------------------------------------------
-------------------44444444---------------------------
-66666666-22222222-44444444-44444444------------------
-66666666-22222222-22222222-44444444------------------
-44444444-00000000----------22222222------------------4X

Bridge:
------------------------------0--------
------------0--------------0-----0-----
---------0-----0--------2-----------0--
-----10--------------2-----------------
--8---------------0--------------------8X
---------------------------------------

Chorus:
------------------------------------------------------
------------------------------------------------------
-------------------44444444---------------------------
-66666666-22222222-44444444-44444444------------------
-66666666-22222222-22222222-44444444------------------
-44444444-00000000----------22222222------------------4X

Outro:
-------------------------------------------------------
-------------------------------------------------------
--------4-----0---------4------------------4--6^p4-----
-----6-----6---------6-----6--0---------6-----------4--
--4---------------4------------------4-----------------
-------------------------------------------------------2X

Verse's
I'm all alone in this forlorn world
Humanity crumbles around my being
As the future comes and goes so quickly
The generations come and pass

Chorus's
My time is coming and I'm going under
I'm being pulled by the supernatural forces around me
Is this what happens when everything else fails?
This is what my dreams are made of!
Comments