Simpliztick - Latin Metal Chords & Tabs

 

Latin Metal Chords & Tabs

Simpliztick Chords & Tabs

Version: 1 Type: Tab 0 ratings
1 star 2 stars 3 stars 4 stars 5 stars
comments

Latin Metal Tab

Tabbed by:Drew
Artist:Simpliztick 341
Song:Latin Metal

verse:
-----------------------------------------------------------
-----------------------------------------------------------
-----------------------------------------------------------
xxxx5-5-------xxxx5-5---------xxxx3-3-------xxxx3-3--------
xxxx5-5-----5-xxxx5-5-------5-xxxx3-3-----3-xxxx3-3-----3--
xxxx5-5-5h7---xxxx5-5-5-5h7---xxxx3-3-3h5---xxxx3-3-3h5----

-----------------------------------------------------------
-----------------------------------------------------------
-----------------------------------------------------------
xxxx5-5-------xxxx5-5---------xxxx3-3-------xxxx3-3--------
xxxx5-5-----5-xxxx5-5-------5-xxxx3-3-----3-xxxx3-3-----3--
xxxx5-5-5h7---xxxx5-5-5-5h7---xxxx3-3-3h5---xxxx3-3-3h5----

prechorus:
---------------------------------------
---------------------------------------
---------------------------------------
-3-xx-3-33-3h5p3p0--0-xx-0-00-3h5p3p0--
-3-xx-3-33-3h5p3p0--0-xx-0-00-3h5p3p0--
-3-xx-3-33-3h5p3p0--0-xx-0-00-3h5p3p0--2X

chorus:
--------------------------------------------
--------------------------------------------
--------------------------------------------
-4---5---5---5---5-5------------------------
-5-X-6-X-6-X-6-X-6-6--5p3p0-6-X-6-X-6-X-6-6-
-0-X-0-X-0-X-0-X-0-0--------0-X-0-X-0-X-0-0-4X

verse:
-----------------------------------------------------------
-----------------------------------------------------------
-----------------------------------------------------------
xxxx5-5-------xxxx5-5---------xxxx3-3-------xxxx3-3--------
xxxx5-5-----5-xxxx5-5-------5-xxxx3-3-----3-xxxx3-3-----3--
xxxx5-5-5h7---xxxx5-5-5-5h7---xxxx3-3-3h5---xxxx3-3-3h5----

-----------------------------------------------------------
-----------------------------------------------------------
-----------------------------------------------------------
xxxx5-5-------xxxx5-5---------xxxx3-3-------xxxx3-3--------
xxxx5-5-----5-xxxx5-5-------5-xxxx3-3-----3-xxxx3-3-----3--
xxxx5-5-5h7---xxxx5-5-5-5h7---xxxx3-3-3h5---xxxx3-3-3h5----

prechorus:
---------------------------------------
---------------------------------------
---------------------------------------
-3-xx-3-33-3h5p3p0--0-xx-0-00-3h5p3p0--
-3-xx-3-33-3h5p3p0--0-xx-0-00-3h5p3p0--
-3-xx-3-33-3h5p3p0--0-xx-0-00-3h5p3p0--2X

chorus:
--------------------------------------------
--------------------------------------------
--------------------------------------------
-4---5---5---5---5-5------------------------
-5-X-6-X-6-X-6-X-6-6--5p3p0-6-X-6-X-6-X-6-6-
-0-X-0-X-0-X-0-X-0-0--------0-X-0-X-0-X-0-0-4X

prebridge:
----------------------------------
----------------------------------
----------------------------------
--3-5/6/5---3-5/6/5---3-5/6/5-3-0-
--3-5/6/5---3-5/6/5---3-5/6/5-3-0-
--3-5/6/5---3-5/6/5---3-5/6/5-3-0-4X






[ Tab from: http://www.guitartabs.cc/tabs/s/simpliztick/latin_metal_tab.html ]
Bridge:
--------------------------------------------------------
--------------------------------------------------------
--------------------------------------------------------
--------0-0--------00-3h5p3---------0-0--------00-3h5p3-
--5-6-5-0-0--5-6-5-00-3h5p3---5-6-5-0-0--5-6-5-00-3h5p3-
-0------0-0-0------00-3h5p3--0------0-0-0------00-3h5p3-

-----------------------------------------------------------
-----------------------------------------------------------
-----------------------------------------------------------
---------2-2---------22-3h5p3---------2-2---------22-3h5p3-
---5-6-5-2-2---5-6-5-22-3h5p3---5-6-5-2-2---5-6-5-22-3h5p3-
-2-------2-2-2-------22-3h5p3-2-------2-2-2-------22-3h5p3-

post bridge:
----------------------------------
----------------------------------
----------------------------------
--3-5/6/5---3-5/6/5---3-5/6/5-3-0-
--3-5/6/5---3-5/6/5---3-5/6/5-3-0-
--3-5/6/5---3-5/6/5---3-5/6/5-3-0-4X

Solo:
---------------------------------------------------------------
-------------------------10-11-13-11-10-11---------------------
----9-10-12-10-9-10---12-----------------------9-10-12-10-9-10-
-12-----------------------------------------12-----------------
---------------------------------------------------------------
---------------------------------------------------------------

-----------10-13-12-10---13p12p10----12p10-------10----------
-----11-12------------------------14-------14-11----14-11-10-
--12---------------------------------------------------------
-------------------------------------------------------------
-------------------------------------------------------------
-------------------------------------------------------------

---------------------------------------------------
--14-11-10----10~-------------------------------11~
-----------12-----12-10-9-12-10-9-------10p9-------
----------------------------------12-11------12----
---------------------------------------------------
---------------------------------------------------
post love
----------------------------------
----------------------------------
----------------------------------
--3-5/6/5---3-5/6/5---3-5/6/5-3-0-
--3-5/6/5---3-5/6/5---3-5/6/5-3-0-
--3-5/6/5---3-5/6/5---3-5/6/5-3-0-4X

prechorus:
---------------------------------------
---------------------------------------
---------------------------------------
-3-xx-3-33-3h5p3p0--0-xx-0-00-3h5p3p0--
-3-xx-3-33-3h5p3p0--0-xx-0-00-3h5p3p0--
-3-xx-3-33-3h5p3p0--0-xx-0-00-3h5p3p0--2X

chorus:
--------------------------------------------
--------------------------------------------
--------------------------------------------
-4---5---5---5---5-5------------------------
-5-X-6-X-6-X-6-X-6-6--5p3p0-6-X-6-X-6-X-6-6-
-0-X-0-X-0-X-0-X-0-0--------0-X-0-X-0-X-0-0-4X

outro
---------------------
---------------------
---------------------
-------------5-6p5---
-4---5~~-7-9-------9-
---0-----------------
Comments