Simpliztick - Ballad Of Rock Chords & Tabs

 

Ballad Of Rock Chords & Tabs

Simpliztick Chords & Tabs

Version: 1 Type: Tab 0 ratings
1 star 2 stars 3 stars 4 stars 5 stars
comments

Ballad Of Rock Tab

Artist:Simpliztick 341
Tabbed by Drew
Song:Ballad of rock

Intro:
-----------------------------
--2-----------3---3p2--------
------2---------------4-2/1--
----4---4-2-0---4------------
-----------------------------
-----------------------------4X

Verse one:
---------------------------
----0----------------------
--------5-4-0-2-4-2-0------
--2--2----------------4-2--
---------------------------
---------------------------6X

Chorus:
--0---0-------0---0---0------0------0--
--1-----1---------1-----1------1-------
--2-------2-------2-------2------2-----
--3---------------0--------------------
---------------------------------------2X
---------------------------------------

Verse two:
---------------------------
----0----------------------
--------5-4-0-2-4-2-0------
--2--2----------------4-2--
---------------------------
---------------------------6X
[ Tab from: http://www.guitartabs.cc/tabs/s/simpliztick/ballad_of_rock_tab.html ]
Chorus:
--0---0-------0---0---0------0------0--
--1-----1---------1-----1------1-------
--2-------2-------2-------2------2-----
--3---------------0--------------------
---------------------------------------4X
---------------------------------------
Solo riff:
-----------------------------3p2---2--------------
---------------------------------4---4-2----------
-4^-4p2----2----------4^(8)--------------4-2------
--------4-----4p2-----------------------------5^--
------------------4p2-----------------------------
--------------------------------------------------

Verse three:
---------------------------
----0----------------------
--------5-4-0-2-4-2-0------
--2--2----------------4-2--
---------------------------
---------------------------6X

Outro:
-----------------------------
--2-----------3---3p2--------
------2---------------4-2/1--
----4---4-2-0---4------------
-----------------------------
-----------------------------4X


(Capo at 2nd fret)
Comments