Simpliztic 341 - Net Of Despair Chords & Tabs

 

Net Of Despair Chords & Tabs

Simpliztic 341 Chords & Tabs

Version: 1 Type: Tab 0 ratings
1 star 2 stars 3 stars 4 stars 5 stars
comments

Net Of Despair Tab

Intro: (clean)
-----------------------------------------------------
-----------------------------------------------------
----------0-----------------0----------------0-------
--------4---4--0~---------4---4--0~--------4---4--0~-
--2--2--------------0--0-----------------------------
-------------------------------------3--3------------2X

Verse one:(clean)
-----------------------------------------------------
-----------------------------------------------------
----------0-----------------0----------------0-------
--------4---4--0~---------4---4--0~--------4---4--0~-
--2--2--------------0--0-----------------------------
-------------------------------------3--3------------4X

Chorus:(clean)
------------------------------------------------------
------------------------------------------------------
------------0-----------0------------0-------------0--
--4444444-4---4444444-4---5555555-4-----5555555-4-----
--2222222-----0000000-----5555555-------5555555-------
--------------------------3333333-------3333333-------2x

Verse two:(clean)
-----------------------------------------------------
-----------------------------------------------------
----------0-----------------0----------------0-------
--------4---4--0~---------4---4--0~--------4---4--0~-
--2--2--------------0--0-----------------------------
-------------------------------------3--3------------2X
(distortion)
----------------------------------------------
----------------------------------------------
----------------------------------------------
-----4--0--2-4------4--0--2-4------4--0--2-4--
--2--------------0----------------------------
--------------------------------3-------------2X
[ Tab from: http://www.guitartabs.cc/tabs/s/simpliztic_341/net_of_despair_tab.html ]
Chorus:(distortion)
------------------------------------------------------
------------------------------------------------------
------------0-----------0------------0-------------0--
--4444444-4---4444444-4---5555555-4-----5555555-4-----
--2222222-----0000000-----5555555-------5555555-------
--------------------------3333333-------3333333-------2x

Solo:(distortion)
-----------------------------------------------------
-----------------------------------------------------
----------0-----------------0----------------0-------
--------4---4--0~---------4---4--0~--------4---4--0~-
--2--2--------------0--0-----------------------------
-------------------------------------3--3------------

----------------------------------------------
----------------------------------------------
----------------------------------------------
-----4--0--2-4------4--0--2-4------4--0--2-4--
--2--------------0----------------------------
--------------------------------3-------------

------------------------------------------------------
------------------------------------------------------
------------------------------------------------------
-----4--0--0h2p0h2--4-2--1-----4--0--0h2p0h2--4-2--1--
--2-------------------------0-------------------------
------------------------------------------------------

------------------------------
------------------------------
------------------------------
-----4--0--0h2p0h2--4-2--1----
------------------------------
--3---------------------------

Chorus:(distortion)
------------------------------------------------------
------------------------------------------------------
------------0-----------0------------0-------------0--
--4444444-4---4444444-4---5555555-4-----5555555-4-----
--2222222-----0000000-----5555555-------5555555-------
--------------------------3333333-------3333333-------2x

ending:(clean;softly)
-----------------------------------------------------
-----------------------------------------------------
----------0-----------------0----------------0-------
--------4---4--0~---------4---4--0~--------4---4--0~-
--2--2--------------0--0-----------------------------
-------------------------------------3--3------------
Comments