Simple Plan - You Dont Mean Anything Chords & Tabs

 

You Dont Mean Anything Chords & Tabs

Simple Plan Chords & Tabs

Version: 1 Type: Tab 0 ratings
1 star 2 stars 3 stars 4 stars 5 stars
comments

You Dont Mean Anything Tab

   
Standard tuning (EADGBe)


Intro------2x---distortion

e------------------------------------|
B------------------------------------|
G-4-4--6-6--9-9--8-8--8-6--8-6--8-6--|
D-4-4--6-6--9-9--8-8--8-6--8-6--8-6--|
A-2-2--4-4--7-7--6-6--6-4--6-4--6-4--|
E------------------------------------|

Verse  (Maybe I'm just not good enough for you...)

e----------------------------------------------------------|
B---------------------------------------------------2------|
G--4--4--3--4------4------4------4------4-----4-3-4---4-3--|
D--4-----3------6------4------2------2------4--------------|
A--2-----1------6------4------2------2------4--------------|
E---------------4------2------0------0------2--------------|

Interlude (You always bring me down...)

e------------------------------------------------------|
B------------------------------------------------------|
G--------3-4---------3-4--6-6-6-6--4-4-4-4--3-3--------|
D-2-2-2--3-4--2-2-2--3-4--6-6-6-6--4-4-4-4--3-3--6-6--4|
A-2-2-2--1-2--2-2-2--1-2--4-4-4-4--2-2-2-2--1-1--6-6--4|
E-0-0-0-------0-0-0------------------------------4-4--2|

Chorus (You don't, You don't.....)--2x
[ Tab from: http://www.guitartabs.cc/tabs/s/simple_plan/you_dont_mean_anything_tab.html ]
e
B
G-4----3------------
D-4----3----------6---------4---------2
A-2----1----------6---------4---------2
E-----------------4---------2---------0
   You don't You don't You don't You don't You don't mean

e-----------------|
B-----------------|
G-------------4---|
D--4----------4---|
A--4----------2---|
E--2--------------|
  Anything to me

Interlude:

e-----------------------------------------------|
B-----------------------------------------------|
G--8------------6--------------4----------------|
D--8------------6--------------4--------------6-|
A--6------------4--------------2--------------6-|
E---------------------------------------------4-|
     I know you want to help me I don't need anything
  
e-----------------------------------------------------------|
B-----------------------------------------------------------|
G-8-----------6----------------4----------------------------|
D-8-----------6----------------4-----------------6----------|
A-6-----------4----------------2-----------------6----------|
E------------------------------------------------4----------|
  I know you want to help me I dont need you to know, no no
Comments