Simple Plan - Worst Day Ever Chords & Tabs

 

Worst Day Ever Chords & Tabs

Simple Plan Chords & Tabs

Version: 3 Type: Tab 0 ratings
1 star 2 stars 3 stars 4 stars 5 stars
comments

Worst Day Ever Tab

   
2. Worst day ever
e: --------------------------------------------------------------------------|
B: --------------------------------------------------------------------------|
G: -44444444----------44444444----------44444444-----------------------------|
D: -44444444-44444444-44444444-44444444-44444444-44444444-66666666-2--2--222-|
A: -22222222-44444444-22222222-44444444-22222222-44444444-66666666-2--2--222-|
E: ----------22222222----------22222222----------22222222-44444444-0--0--000-|
									 P.M
   Nothing during:
   Six Am the clock is ringin' I need to spend an hour snoozing
   then:

   Cuz I don't think I'm gonna make it.
e: --------------|
B: --------------|
G: --------------|
D: -66-66--44-44-|
A: -66-66--44-44-|
E: -44-44--22-22-|

   I punch in, I'm still sleeping watch the clock but it's not moving
e: ---|
B: ---|
G: -4-|
D: -4-|
A: -2-|
E: ---| Let Ring

   Pre Chorus:
   Cuz everyday is never ending I need to work I'm allways spending
e: ------------------------------|
B: ------------------------------|
G: ------------------------------|
D: -66-66--44-44--2-2-2-2-4----4-|
A: -66-66--44-44--2-2-2-2-4----4-|
E: -44-44--22-22--0-0-0-0-2----2-|

   Chorus:
   And I feel like I'm living the worst day over and over again... And I
e: --------------------------------------|
B: --------------------------------------|
G: -44444444---------4444----------------|
D: -44444444-2222222-4444-4444-2222--6-4-|
A: -22222222-2222222-2222-4444-2222--6-4-|
E: ----------0000000------2222-0000--4-2-|

   feel like the summer is leaving again... I
e: -----------------------------------|
B: -----------------------------------|
G: -44444444--------------------------|
D: -44444444-66666666-44444444--------|
A: -22222222-66666666-44444444--------|
E: ----------44444444-22222222--0-2-0-|


   feel like I'm living the worst day, I feel like you're gone
e: --------------------------------------|
B: --------------------------------------|
G: -444444444-------------------66666666-|
D: -444444444-22222222-66666666-66666666-|
A: -222222222-22222222-66666666-44444444-|
E: -----------00000000-44444444----------|

   And everyday is the worst day ever
e: ---------------------------------|
B: ---------------------------------|
G: ---------------------------------|
D: ----2---------------2---------4--|
A: ----2-Stop----------2-Stop----4--|
E: ----0---------------0---------2--|

   Intro Again:
e: -------------------------------------|
B: -------------------------------------|
G: -44444444----------44444444----------|
D: -44444444-44444444-44444444-44444444-|
A: -22222222-44444444-22222222-44444444-|
E: ----------22222222----------22222222-|

   Verse 2:
   Yesterday was the worst day ever and tomorrow won't be better
   it's history repeating (on and on)
e: ---|
B: ---|
G: -4-|
D: -4-|	Let ring
A: -2-|
E: ---|

   Summer plans are gone forever, I trade them in for dishpan water
e: ----------------------------------|
B: ----------------------------------|
G: -44444444444444444444444444444444-|
D: -22222222222222222222222222222222-|
A: -22222222222222222222222222222222-|
E: ----------------------------------|
    P.M (slowly letting go to open chord)

   Pre Chorus:
   Cuz everyday is never ending I need to work I'm allways spending
e: ------------------------------|
B: ------------------------------|
G: ------------------------------|
D: -66-66--44-44--2-2-2-2-4----4-|
A: -66-66--44-44--2-2-2-2-4----4-|
E: -44-44--22-22--0-0-0-0-2----2-|
[ Tab from: http://www.guitartabs.cc/tabs/s/simple_plan/worst_day_ever_tab_ver_3.html ]
   Chorus:
   And I feel like I'm living the worst day over and over again... And I
e: --------------------------------------|
B: --------------------------------------|
G: -44444444---------4444----------------|
D: -44444444-2222222-4444-4444-2222--6-4-|
A: -22222222-2222222-2222-4444-2222--6-4-|
E: ----------0000000------2222-0000--4-2-|

   feel like the summer is leaving again... I
e: -----------------------------------|
B: -----------------------------------|
G: -44444444--------------------------|
D: -44444444-66666666-44444444--------|
A: -22222222-66666666-44444444--------|
E: ----------44444444-22222222--0-2-0-|

   feel like I'm living the worst day, I feel like you're gone
e: -------------------------------------|
B: -------------------------------------|
G: -44444444-------------------66666666-|
D: -44444444-22222222-66666666-66666666-|
A: -22222222-22222222-66666666-44444444-|
E: ----------00000000-44444444----------|


   And everyday is the worst day ever
e: ---------------------------------|
B: ---------------------------------|
G: ---------------------------------|
D: ----2---------------2---------4--|
A: ----2-Stop----------2-Stop----4--|
E: ----0---------------0---------2--|

             Whoohoo  And Everyday is the worst day ever
e: ---------------------------------------------------|
B: ---------------------------------------------------|
G: -44444444------------------------------------------|
D: -44444444-44444444-----2----4---------------2----4-|
A: -22222222-44444444-----2----4---------------2----4-|
E: ----------22222222-----0----2---------------0----2-|

   Bridge:
   It's so long, I can't go on
e: ------------------------------------|
B: ------------------------------------|
G: -6666666666666666-------------------|
D: -6666666666666666-44444444-66666666-|
A: -4444444444444444-44444444-66666666-|
E: ------------------22222222-44444444-| 3x

   Chorus: (clean)
   And I feel like I'm living the worst day over and over again... And I
e: ----------------------------------|
B: ----------------------------------|
G: -66666666----------6666-----------|
D: -66666666-44444444-6666-6666-4444-|
A: -44444444-44444444-4444-6666-4444-|
E: ----------22222222------4444-2222-|

   (Distortion again)
   feel like the summer is leaving again... I
e: -----------------------------------|
B: -----------------------------------|
G: -66666666--------------------------|
D: -66666666-88888888-66666666--------|
A: -44444444-88888888-66666666--------|
E: ----------66666666-44444444--2-4-2-|

   feel like I'm living the worst day, I feel like you're gone
e: -------------------------------------|
B: -------------------------------------|
G: -66666666-------------------88888888-|
D: -66666666-44444444-88888888-88888888-|
A: -44444444-44444444-88888888-66666666-|
E: ----------22222222-66666666----------|

   And everyday is the worst day ever
e: ---------------------------------|
B: ---------------------------------|
G: ---------------------------------|
D: ----4----6-----------4--------6--|
A: ----4----6-----------4--------6--|
E: ----2----4-----------2--------4--|


   WHooo whoohoo and everyday is the worst day ever
e: --------------------------------------|
B: --------------------------------------|
G: -66666666-----------------------------|
D: -66666666-66666666-4----6-----------4-|
A: -44444444-66666666-4----6-----------4-|
E: ----------44444444-2----4-----------2-| Let Ring

   Whooo whoohoo whoo whoohoohoo	(It's the worst day ever)
e: -------------------------------------|
B: -------------------------------------|
G: -66666666----------------------------|
D: -66666666-66666666-88888888-44444444-|
A: -44444444-66666666-88888888-44444444-|
E: ----------44444444-66666666-22222222-| 3x

   End:
   Whooo whoohoo      Whowho  Whoohoohoooo
e: -------------------------------------|
B: -------------------------------------|
G: -66666666----------------------------|
D: -66666666-66666666-8---8----4--------|
A: -44444444-66666666-8---8----4--------|
E: ----------44444444-6---6----2--------| Let Ring
Comments