Simple Plan - Worst Day Ever Chords & Tabs

 

Worst Day Ever Chords & Tabs

Simple Plan Chords & Tabs

Version: 2 Type: Tab 0 ratings
1 star 2 stars 3 stars 4 stars 5 stars
comments

Worst Day Ever Tab

   
--------------------------------------------------------------------------------
                    The Worst Day Ever - Simple Plan
--------------------------------------------------------------------------------
Artist: Simple Plan
Song: Worst Day Ever (Track 2)
Albulm: No Pads, No Helmets,....Just Balls.
Tabbed by: ZeroisGreatMan
Tunning: Half-Step Down: Eb,Ab,Db,Gb,Bb,Eb

Intro/Fill: [w/Distortion]
eb|-------------------------------|
Bb|-------------------------------|
Gb|-----------------0-0-2-2-4-5/0-|(x2)
Db|-----0-0-2-2-3-3---------------|
Ab|-3-3---------------------------|
Eb|-------------------------------|

eb|-------------------------------|
Bb|-------------------------------|
Gb|-----------------0-0-2-2-5-4/0-|
Db|-----0-0-2-2-3-3---------------|
Ab|-3-3---------------------------|
Eb|-------------------------------|

eb|---------------------|
Bb|---------------------|
Gb|-----------------0-0-|
Db|-----0-0-2-2-3-3-----|
Ab|-3-3-----------------|
Eb|---------------------|

Verse: "It's Six am..."[Clean]
eb|----------------------------|
Bb|-------1------------1-------|
Gb|-----0----0-------0---0-----|(x2)
Db|---2--------2---2-------2---|
Ab|-3------------3-----------3-|
Eb|----------------------------|

"Cuz I don't think I'm going to make it"
eb|--------------------|
Bb|--------------------|
Gb|-2-2--2-2-----------|
Db|-2-2--2-2--5-5--5-5-|[w/Distortion]
Ab|-0-0--0-0--5-5--5-5-|
Eb|-----------3-3--3-3-|

Pre-Chorus: "I need to work I'm always spending..."
eb|----------------------------------|
Bb|----------------------------------|
Gb|----------------------------------|
Db|-3-3-3-3-3-3-3-3--5-5-5-5-5-5-5-5-|
Ab|-3-3-3-3-3-3-3-3--5-5-5-5-5-5-5-5-|[w/Distortion]
Eb|-1-1-1-1-1-1-1-1--3-3-3-3-3-3-3-3-|

Chorus: 
"And I feel like..." | "over and over again"
eb|------------------|--------------------------------|
Bb|------------------|--------------------------------|
Gb|-5-5-5-5----------|-5-5-5-5------------------------|
Db|-5-5-5-5--7-7-7-7-|-5-5-5-5--5-5-5--3-3-3--5-5-3-5-|
Ab|-3-3-3-3--7-7-7-7-|-3-3-3-3--5-5-5--3-3-3--5-5-3-5-|
Eb|----------5-5-5-5-|----------3-3-3--1-1-1--3-3-1-3-|
[ Tab from: http://www.guitartabs.cc/tabs/s/simple_plan/worst_day_ever_tab_ver_2.html ]
"The summer is leaving..."|"It feels like your gone..."
eb|-----------------------|-----------------------|
Bb|-----------------------|-----------------------|
Gb|-5-5-5-5---------------|-5-5-------7-7-7-7-7-7-|
Db|-5-5-5-5--7-7-7-7--3-5-|-5-5--7-7--7-7-7-7-7-7-|
Ab|-3-3-3-3--7-7-7-7--3-5-|-3-3--7-7--5-5-5-5-5-5-|
Eb|----------5-5-5-5--1-3-|------5-5--------------|

"And everyday is the worst day ever"
eb|------------------|
Bb|------------------|
Gb|------------------|
Db|-3-3-3-3--5-5-5-5-|
Ab|-3-3-3-3--5-5-5-5-|
Eb|-1-1-1-1--3-3-3-3-|


Bridge: "So long...I can't go on..."
eb|-------------------------------------------------------------|
Bb|-------------------------------------------------------------|
Gb|-12-12-12-11-11-11-12-12-12-11-11-11-12-12-12-11-11-11-9-9-9-|
Db|--x--x--x--x--x--x--x--x--x--x--x--x--x--x--x--x--x--x-x-x-x-|
Ab|-10-10-10--9--9--9-10-10-10--9--9--9-10-10-10--9--9--9-7-7-7-|
Eb|-------------------------------------------------------------|

Outro:"Whoa--oo, it's the worst day ever.
Intro/Fill: [w/Distortion]
eb|-------------------------------|
Bb|-------------------------------|
Gb|-----------------2-2-4-4-6-7/0-|(x2)
Db|-----2-2-4-4-5-5---------------|
Ab|-5-5---------------------------|
Eb|-------------------------------|

eb|-------------------------------|
Bb|-------------------------------|
Gb|-----------------2-2-4-4-7-5/0-|
Db|-----2-2-4-4-5-5---------------|
Ab|-5-5---------------------------|
Eb|-------------------------------|

eb|---------------------|
Bb|---------------------|
Gb|-----------------2-2-|
Db|-----2-2-4-4-5-5-----|
Ab|-2-2-----------------|
Eb|---------------------|

eb|-------|
Bb|-------|
Gb|-12-/0-|
Db|--x-/0-|
Ab|-10-/0-|
Eb|-------|

[Lyrics]

It's six am, the clock is ringing,
I need to spend and hour snoozing.
I don't think I'm gonna make it.
I punch in I'm still sleeping,
Watch the clock but it's not moving.
'Cuz everyday is neverending,
I need to work, I'm always spending.

And I feel like I'm living the worst day,
Over and over again.
I feel like the summer is leaving again.
And I fee like I'm living the worst day,
It feels like you're gone and,
Everyday, is the worst day ever.

Yesterday was the worst day ever,
And tommorrow won't be better,
It's history repeating on and on.
Summer plans are gone forever,
I traded them for dispan water.
And everyday is never ending, 
I need to work, I'm alwasy spending.

It's so long, and I can't go on.

================================================================================
Comments