Simple Plan - When Im With You Chords & Tabs

 

When Im With You Chords & Tabs

Simple Plan Chords & Tabs

Version: 8 Type: Tab 0 ratings
1 star 2 stars 3 stars 4 stars 5 stars
comments

When Im With You Tab

Tabbed by: Will
Email: nakdmaninabush@hotmail.com

Tuning: down 1/2 step

Intro..
e|-----------------------------------|
b|-----------------------------------|
g|-------7-7------7------------------|
d|--7----7-7----7-7---4-4--2-2-------|
a|--7----5-5----7-5---4-4--2-2-------|
e|--5-----------5-----2-2--0-0-------|2x

Verse..
e|--------------------------------------------|
b|--------------------------------------------|
g|------------------------------------7-------|
d|--7-7---2-2---4-4--2-2---7-7---2-2--7-7-7---|
a|--7-7---2-2---4-4--2-2---7-7---2-2--5-7-7---|
e|--5-5---0-0---2-2--0-0---5-5---0-0----5-5---|2x
[ Tab from: http://www.guitartabs.cc/tabs/s/simple_plan/when_im_with_you_tab_ver_8.html ]
Chorus..
e|--------------------|
b|--------------------|
g|------4---7---------|
d|--7---4---7---2-----|*strummings on you
a|--7---2---5---2-----|
e|--5-----------0-----|2x then.. 

e|---------------------------|
b|---------------------------|
g|----------7----------------|
d|--4---2---7---7-----4---2--|
a|--4---2---5---7-----4---2--|then immediately start into/end chorus 
e|--2---0-------5-----2---0--|with A5

repeat until bridge, which is..
e|-----------------------------------|
b|-----------------------------------|
g|--------------------------7--------|
d|--7-------2-------4-------7(x10)---|
a|--7(x10)--2(x10)--4(x10)--5--------|
e|--5-------0-------2----------------|2x 

now intro then chorus until the last part

"but I guess I'll never get to call you mine."
e|--------------|
b|--------------|
g|--------------|
d|--4--2--7-----|
a|--4--2--7-----|
e|--2--0--5-----|



not much to it, just power chords
Comments