Simple Plan - When Im With You Chords & Tabs

 

When Im With You Chords & Tabs

Simple Plan Chords & Tabs

Version: 7 Type: Tab 0 ratings
1 star 2 stars 3 stars 4 stars 5 stars
comments

When Im With You Tab

   
Song Tabbed by Mark
Drop D
\ slide down
pm palm mute

intro
Guitar 1
e-------------------
B-------------------
G-5-66-6-6-55-3333--
D-5-66-6-6-55-3333-- 2x
A-3-44-3-4-33-1111--
D-------------------

Guitar 2 on second time
         e----------
         B----------
         G1010-8-7-8
         D-x-x-x-x-x
         A-8-8-6-5-6
         D----------

e-------------------------------------------------
B-------------------------------------------------
G-------------------6-66-------------66----6-66---
D-66-11-33-11-66-11-6-66-66-11-33-11-66-11-6-66---
A-66-11-33-11-66-11-4-33-66-11-33-11-44-11-4-33---
D-66-11-33-11-66-11------66-11-33-11----11------6\

                        Second guitar
                        e-4--4--4--8--4--4-
                        B--4--4--4--9--4--4

Chorus
e---------------------
B---------------------
G-------33333-66666-8-
D-66666-33333-66666-8-
A-66666-11111-44444-6- 2x
D-66666---------------

second guitar at the end of first round of chorus
e-------------------
B-------------------
G-12-13-13-15-15-17-
D--x--x--x--x--x--x-
A-10-11-11-13-13-15-
D-------------------
second guitar at the end of second round
e-------------------
B-------------------
G-15-13-13-12-12-13-
D--x--x--x--x--x--x-
A-13-11-11-10-10-11-
D-------------------

e---------------------------------------
B---------------------------------------
G--------------5--5---------------------
D-3333-11111-------101010101010108-88888
A-3333-11111-44-66-8-8-8-8-8-8-8-6-66666
D-3333-11111-pm-pm----------------------
"but every time..."


Guitar 1
e-------------------
B-------------------
G-5-66-6-6-55-3333--
D-5-66-6-6-55-3333-- 2x
A-3-44-3-4-33-1111--
D-------------------

Guitar 2 on second time
         e----------
         B----------
         G1010-8-7-8
         D-x-x-x-x-x
         A-8-8-6-5-6
         D----------
verse
e-------------------------------------------------
B-------------------------------------------------
G-------------------6-66-------------66----6-66---
D-66-11-33-11-66-11-6-66-66-11-33-11-66-11-6-66---
A-66-11-33-11-66-11-4-33-66-11-33-11-44-11-4-33---
D-66-11-33-11-66-11------66-11-33-11----11------6\

                        Second guitar
                        e-4--4--4--8--4--4-
                        B--4--4--4--9--4--4
[ Tab from: http://www.guitartabs.cc/tabs/s/simple_plan/when_im_with_you_tab_ver_7.html ]
Chorus
e------------------------
B--------------------
G-------33333-66666-8
D-66666-33333-66666-8
A-66666-11111-44444-6 2x
D-66666--------------

second guitar at the end of first round of chorus
e-------------------
B-------------------
G-12-13-13-15-15-17-
D--x--x--x--x--x--x-
A-10-11-11-13-13-15-
D-------------------
second guitar at the end of second round
e-------------------
B-------------------
G-15-13-13-12-12-13-
D--x--x--x--x--x--x-
A-13-11-11-10-10-11-
D-------------------

e---------------------------------------
B---------------------------------------
G--------------5--5---------------------
D-3333-11111-------101010101010108-88888
A-3333-11111-44-66-8-8-8-8-8-8-8-6-66666
D-3333-11111-pm-pm----------------------
"but every time..."

Guitar 1 with wah
e-----------------
B-----------------
G-5-66-6-6--8888--
D-5-66-6-6--8888-- 3x
A-3-44-3-4--6666--
D-----------------

e--------------
B--------------
G-6-8-10-12-13-
D-x-x--x--x--x-
A-4-6--8-10-11-
D--------------

Guitar 1 with wah
e-----------------
B-----------------
G-5-66-6-6--8888--
D-5-66-6-6--8888-- 3x
A-3-44-3-4--6666--
D-----------------

e--------------
B--------------
G-6-8-10-12-13-
D-x-x--x--x--x-
A-4-6--8-10-11-
D--------------

Guitar 1
e---------------
B---------------
G-5-66-6-6-55-3-
D-5-66-6-6-55-3- 
A-3-44-3-4-33-1-
D---------------

e-------------------
B-------------------
G-5-66-1010-888-10-8
D-5-66--x-x-xxx--x-x
A-3-44--8-8-666--8-6
D-------------------

Chorus
e------------------------
B--------------------
G-------33333-66666-8
D-66666-33333-66666-8
A-66666-11111-44444-6 2x
D-66666--------------

second guitar at the end of first round of chorus
e-------------------
B-------------------
G-12-13-13-15-15-17-
D--x--x--x--x--x--x-
A-10-11-11-13-13-15-
D-------------------
second guitar at the end of second round
e-------------------
B-------------------
G-15-13-13-12-12-13-
D--x--x--x--x--x--x-
A-13-11-11-10-10-11-
D-------------------

play last chorus twice then repeat the last ending
e-------------------
B-------------------
G-15-13-13-12-12-13-
D--x--x--x--x--x--x-
A-13-11-11-10-10-11-
D-------------------

solo during last chorus (needs some kind of effect)
e-9--
B--9- it just repeats itself
Comments