Simple Plan - When Im With You Chords & Tabs

 

When Im With You Chords & Tabs

Simple Plan Chords & Tabs

Version: 5 Type: Tab 0 ratings
1 star 2 stars 3 stars 4 stars 5 stars
comments

When Im With You Tab

this song is so easy . so many have totally screwed up this tab.
this song is in standard tuning (eadgbe)

        intro 1
e-----------------------
b----------------------- 
g-5--6-6--5--6--5-5--3-3    
d-5--6-6--5--6--5-5--3-3    
a-3--4-4--3--4--3-3--1-1    
E-----------------------

        intro 2
e-----------------------
b-----------------------
g-5--6-6--5--6--5-5--8-8
d-5--6-6--5--6--5-5--8-8
a-3--4-4--3--4--3-3--6-6
E-----------------------
[ Tab from: http://www.guitartabs.cc/tabs/s/simple_plan/when_im_with_you_tab_ver_5.html ]
         verse
eE-----------------------------------------
b------------------------------------------    whole  thing 4 times 
g-----------8------------10------------8---
d-6---------8------------10------------8---       
a-6---------6(4x)--------8(4x)---------6(4x)
E-4(4x)------------------------------------
 takin' my time...

        chorus
e----------------------------------
b----------------------------------
g----------3--------6--------6-----
d-6--------3--------6--------6-----  whole thing  times
a-6--------1(8x)----4(8x)----8(8x)-
E-4(8x)----------------------------

intro 1
intro 2
verse
chorus
intro 1
intro 2
verse 
chorus
 
hope this is accurate enough. i think the play it in drop d. but iu hat tuning
down my guitar  this is my first tab on this site.
Comments