Simple Plan - When Im With You Chords & Tabs

 

When Im With You Chords & Tabs

Simple Plan Chords & Tabs

Version: 1 Type: Tab 0 ratings
1 star 2 stars 3 stars 4 stars 5 stars
comments

When Im With You Tab

   
When I'm With You
5 - No Pads, No Helmets... Just Balls
Simple Plan

questions: killerewok22@hotmail.com

Standard Tuning: EADGBE
Optional Tuning: DADGBE

Riff A:
E|----------------|----------------|----------------|----------------|
B|----------------|----------------|----------------|----------------|
G|6---x-7-7---x-6-|--7---6-6-4-4---|6---x-7-7---x-6-|--7---11119-9---|
D|x---x-x-x---x-x-|--x---x-x-x-x---|x---x-x-x---x-x-|--x---x-x-x-x---|
A|4---x-5-5---x-4-|--5---4-4-2-2---|4---x-5-5---x-4-|--5---9-9-7-7---|
E|----------------|----------------|----------------|----------------|

Verse Riff: 
E|(PM...----------|----------------|------------...)|----------------|
B|----------------|----------------|----------------|----------------|
G|----------------|----------------|----------------|7---x-6-6---x-x-|
D|6-6-6-6-4-4-4-4-|6-6-6-6-4-4-4-4-|--------2-2-2-2-|7---x-6-6---x-x-|
A|4-4-4-4-2-2-2-2-|4-4-4-4-2-2-2-2-|4-4-4-4-0-0-0-0-|5---x-4-4---x-x-|
E|----------------|----------------|2-2-2-2---------|----------------|
Cont'd
E|(PM...----------|----------------|------------...)|----------------|
B|----------------|----------------|----------------|----------------|
G|----------------|----------------|----------------|7---x-6-6---x-x-|
D|6-6-6-6-4-4-4-4-|7-7-7-7-4-4-4-4-|2-2-2-2-4-4-4-4-|7---x-6-6---x-x-|
A|4-4-4-4-2-2-2-2-|5-5-5-5-2-2-2-2-|0-0-0-0-2-2-2-2-|5---x-4-4---x-x-|
E|----------------|----------------|----------------|----------------|

During second part of Verse Riff:
E|----5-------5---|----5------9p5--|----5-------5---|----5-------5---|
B|----------------|----------------|----------------|----------------|
G|----------------|----------------|----------------|----------------|
D|----------------|----------------|----------------|----------------|
A|----------------|----------------|----------------|----------------|
E|----------------|----------------|----------------|----------------|

Chorus Riff:
E|----------------|----------------|----------------|----------------|
B|----------------|----------------|----------------|----------------|
G|2-2-2-2-2-2-2-2-|4-4-4-4-4-4-4-4-|----------------|9-9-9-9-9-9-9-9-|
D|2-2-2-2-2-2-2-2-|4-4-4-4-4-4-4-4-|4-4-4-4-4-4-4-4-|9-9-9-9-9-9-9-9-|
A|0-0-0-0-0-0-0-0-|2-2-2-2-2-2-2-2-|4-4-4-4-4-4-4-4-|7-7-7-7-7-7-7-7-|
E|----------------|----------------|2-2-2-2-2-2-2-2-|----------------|...x2
Chorus Ending:
E|----------------|----------------|----------------|----------------|----------------|
B|>----->----->---|>----->----->---|----------------|>----->----->---|>----->----->---|
G|7-7-7-7-7-7-7-7-|6-6-6-6-6-6-4-4-|PM..--......--..|7-7-7-7-7-7-7-7-|6-6-6-6-6-6-4-4-|
D|7-7-7-7-7-7-7-7-|6-6-6-6-6-6-4-4-|----------------|7-7-7-7-7-7-7-7-|6-6-6-6-6-6-4-4-|
A|5-5-5-5-5-5-5-5-|4-4-4-4-4-4-2-2-|----5-------4---|5-5-5-5-5-5-5-5-|4-4-4-4-4-4-2-2-|
E|----------------|----------------|5-5---5-5-5---5-|----------------|----------------|

Chorus Alt Ending 1:
E|----------------|
B|----------------|
G|6---------------|
D|6---------------|
A|4---------------|
E|----------------|

Chorus Alt Ending 2:
E|----------------|----------------|
B|----------------|2---------------|
G|4-----4---6-----|2---------------|
D|4-----4---6-----|2---------------|
A|2-----2---4-----|0---------------|
E|----------------|----------------|

Riff 2:
E|----------------|----------------|----------------|----------------|
B|----------------|----------------|----------------|----------------|
G|6---x-7-7---x-6-|--7---6-7-6-7-6-|6---x-7-7---x-6-|--7---6-9-7-6-7-|
D|x---x-x-x---x-x-|--x---x-x-x-x-x-|x---x-x-x---x-x-|--x---x-x-x-x-x-|
A|4---x-5-5---x-4-|--5---4-5-4-5-4-|4---x-5-5---x-4-|--5---4-7-5-4-5-|
E|----------------|----------------|----------------|----------------|
Cont'd...
E|----------------|----------------|----------------|----------------|
B|----------------|----------------|----------------|----------------|
G|6---x-7-7---x-6-|--7---6-7-6-7-6-|6-6-7-9---11----|14-------------|
D|x---x-x-x---x-x-|--x---x-x-x-x-x-|x-x-x-x---x-----|x--------------|
A|4---x-5-5---x-4-|--5---4-5-4-5-4-|4-4-5-7---9-----|12-------------|
E|----------------|----------------|----------------|----------------|
[ Tab from: http://www.guitartabs.cc/tabs/s/simple_plan/when_im_with_you_tab.html ]
Bridge Riff:
E|----------------|----------------|----------------|----------------|
B|----------------|----------------|----------------|----------------|
G|----------------|----------------|----------------|----------------|
D|4-4-4-4-4-4-4-4-|4-4-4-4-4-4-4-4-|2-2-2-2-2-2-2-2-|2-2-2-2-2-2-2-2-|
A|4-4-4-4-4-4-4-4-|4-4-4-4-4-4-4-4-|2-2-2-2-2-2-2-2-|2-2-2-2-2-2-2-2-|
E|2-2-2-2-2-2-2-2-|2-2-2-2-2-2-2-2-|0-0-0-0-0-0-0-0-|0-0-0-0-0-0-0-0-|
Cont'd...
E|----------------|----------------|----------------|----------------|
B|----------------|----------------|----------------|----------------|
G|7-7-7-7-7-7-7-7-|7-7-7-7-7-7-7-7-|2-2-2-2---2---2-|--2-2---2-2-2-2|
D|7-7-7-7-7-7-7-7-|7-7-7-7-7-7-7-7-|2-2-2-2---2---2-|--2-2---2-2-2-2|
A|5-5-5-5-5-5-5-5-|5-5-5-5-5-5-5-5-|0-0-0-0---0---0-|--0-0---0-0-0-0|
E|----------------|----------------|----------------|----------------|
*Note: You may use the drop D-tuning version of the D5 chord for this part of the song.

Riff 3:
E|----------------|----------------|----------------|----------------|----------------|
B|----------------|----------------|----------------|----------------|----------------|
G|6---x-7-7---x-6-|--7---6-6-4-4---|6---x-7-7---x-11|119-9-7-7-6-6-4-|2---------------|
D|x---x-x-x---x-x-|--x---x-x-x-x---|x---x-x-x---x-x-|x-x-x-x-x-x-x-x-|2---------------|
A|4---x-5-5---x-4-|--5---4-4-2-2---|4---x-5-5---x-9-|9-7-7-5-5-4-4-2-|0---------------|
E|----------------|----------------|----------------|----------------|----------------|

Riff 1
Verse Riff
Chorus Riff w/ Ending

Riff 1
Verse Riff
Chorus Riff w/ Alt Ending 1

Riff 2
Riff 2 w/ Bridge Riff
Riff 3

Chorus Riff x3 w/ Alt Ending 2

Lyrics:

    C#        B         C#        B         F#  A       d   C#
I'm taking my time, I'm trying to leave the memories of you behind
    C#       B        d         B        A       B         d    C#
I'm gonna be fine, as soon as I get your picture right out of my mind

A                  B               F#                 E
I want to feel the way you make me feel when I'm with you
A                B              F#              E
I want to be the only hands you need to hold on to
    d           C#       B          N.C.(A)
But everytime I call you don't have time
  d                C#              N.C.(A)
I guess I'll never get to call you mine

    C#         B      C#             B       F#      A     d     C#
I'm nothing at all, I know there's a million reasons why I shouldn't called
     C#         B          d      B         A     B      d    C#
With nothing to say, could easily make this conversation last all day

A                  B               F#                 E
I want to feel the way you make me feel when I'm with you
A                B              F#              E
I want to be the only hands you need to hold on to
    d           C#       B          N.C.(A)
But everytime I call you don't have time
  d                C#
I guess I'll never get to call you mine

  F#             E
Another lesson I didn't get to learn
       d                  A
You're my obsession, I've got nowhere to turn

A                  B               F#                 E
I want to feel the way you make me feel when I'm with you
A                B              F#              E
I want to be the only hands you need to hold on to
A                  B               F#                 E
I want to feel the way you make me feel when I'm with you
A                B              F#              E
I want to be the only hands you need to hold on to
A                  B               F#                 E
I want to feel the way you make me feel when I'm with you
A                B              F#              E
I want to be the only hands you need to hold on to
      d                B      C#       A...
But I guess I'll never get to call you mine...
Comments