Simple Plan - Welcome To My Life Chords & Tabs

 

Welcome To My Life Chords & Tabs

Simple Plan Chords & Tabs

Version: 2 Type: Tab 0 ratings
1 star 2 stars 3 stars 4 stars 5 stars
comments

Welcome To My Life Tab

   
Standard tuning 
Chords : C# Bbm F# G#
Verse
|---------------------------------------------------------------------------|
|---------------------------------------------------------------------------|
|------4-4-----4-4------1-1----1-1------------------------------------------|
|-----------4----------------1---------2-2---2-2-----4-4---4-4--------------|


Prechorus
|---------------------------------------------------------------------------|
|-----------3s4-3-----------------------------------------------------------|
|-----------------4-1-1----3s4-3--------------------------------------------|
|---2-2--------------------------4-2-2-----4s6-4-1-4-4----------------------|

[ Tab from: http://www.guitartabs.cc/tabs/s/simple_plan/welcome_to_my_life_tab_ver_2.html ]
Chorus
to be..                   to be..                    to be..
|----------------------|-----|--------------------|-----|-----------------------|
|----------------------|-----|--------------------|-----|-----------------------|
|-----1-1-----4-4------|--4--|-1-1-------4-4------|--4--|-1s11--------4-4-------|
|---------2-2------4-4-|-4---|------2-2-------4-4-|-4---|-------2s12-------4-4--|

|-------------------------------------------------------------------|
|-------------------------------------------------------------------|
|-6-6-6-6-6-6-6-8-9-------------------------------------------------|
|-------------------------------------------------------------------|

Bridge 
      No one ever...       And no one ever..    You might think...
|--------------------|--------------------|-----------------------|
|--------------------|--------------------|-----------------------|
|---4----------------|---4-1------1-------|-1-4-------------------|
|-2---2----2---------|-2------------------|-----2------2----------|

  But I'm not gonna be okay    
|------------------------------------------------------------ _
|------------------------------------------------------------  |
|-----4-------------4---------------------------------------- _| 2x
|-1-2------------------4-------------------------------------

as_han@lycos.com
Comments