Simple Plan - Welcome To My Life Chords & Tabs

 

Welcome To My Life Chords & Tabs

Simple Plan Chords & Tabs

Version: 5 Type: Bass Tab 0 ratings
1 star 2 stars 3 stars 4 stars 5 stars
comments

Welcome To My Life Bass Tab

Verse 1:

G|----------------|----------------|----------------|----------------|
D|----------------|----------------|----------------|----------------| 
A|-4-4-------4----|-1-1-------1----|----------------|----------------|
E|---------4------|---------1------|-2-2-----1-2----|-4-4-------4-4-4|

Pre-Chorus:

G|----------------|-----------6-5--|-----------3-1--|----------------|
D|-----------4-3--|---------------6|---------------3|----------------| x1
A|---------------4|----------------|----------------|-------------4--|
E|-2-2---2--------|-6-6---6--------|-2-2---2--------|-4----------4---|

Chorus:

G|----------------|----------------|----------------|----------------|
D|----------------|----------------|----------------|----------------| 
A|-1-1------------|-4-4--------4---|-1-1------------|-4-4--------4---|
E|---------2-2----|---------4-4----|---------2-2----|---------4-4----|

G|------------------|-----------------|----------------|----------------|
D|------------------|-----------------|----------------|----------------| 
A|-1-1/13-----------|-4-4/16------4---|-6-6-6-6-6-6-68-|-9--------------|
E|----------2-2/14--|----------4-4----|----------------|----------------|

G|----------------|
D|----------------|
A|-------------9\-|
E|----------------|

Verse 2:

G|----------------|-------------3--|----------------|----------------|
D|----------------|-----------3---3|-------------4--|-------------6--| 
A|-4-4---------4--|-1-1------------|-----------4---4|-----------6---6|
E|-----------4---4|----------------|-2-2------------|-4-4------------|

Pre-Chorus

Chorus:

G|----------------|----------------|----------------|----------------|
D|----------------|----------------|----------------|----------------| 
A|-1-1------------|-4-4--------4---|-1-1------------|-4-4--------4---|
E|---------2-2----|---------4-4----|---------2-2----|---------4-4----|
[ Tab from: http://www.guitartabs.cc/tabs/s/simple_plan/welcome_to_my_life_btab_ver_5.html ]
G|------------------|-----------------|----------------|----------------|
D|------------------|-----------------|----------------|----------------| 
A|-1-1/13-----------|-4-4/16------4---|-6-6-6-6-6-6-68-|-9--------------|
E|----------2-2/14--|----------4-4----|----------------|----------------|

G|----------------|----------------|
D|----------------|----------------|
A|----------------|-------------4--|
E|----------------|------------4---|

Bridge:

G|----------------|-----------------|-----------------|----------------|
D|----------------|-----------------|-----------------|----------------|
A|------------4---|-1-1-----1-1.4---|-----------------|-4-4-4-4--------|
E|-2-2-----2-2----|-----------------|-2-2-----2-2.4---|---------4-4-4-4|

G|----------------|-----------------|----------------|----------------|
D|----------------|-----------------|----------------|----------------|
A|------------4---|-1-1-----1-1.4---|-6-6-6-6-6-6-68-|-9-9-9-9-9-9/1--|
E|-2-2-----2-2----|-----------------|----------------|----------------|

Chorus:

G|----------------|----------------|----------------|----------------|
D|----------------|----------------|----------------|----------------|
A|----------------|----------------|----------------|-------------4--|
E|----------------|----------------|----------------|------------4---|

G|----------------|----------------|----------------|----------------|
D|----------------|----------------|----------------|----------------| 
A|-1-1------------|-4-4--------4---|-6-6-6-6-6-6-68-|-9-9-9-9-9-9-9-9|
E|---------2-2----|---------4-4----|----------------|----------------|

G|----------------|----------------|----------------|----------------|
D|----------------|----------------|----------------|----------------| 
A|-1-1------------|-4-4--------4---|-1-1------------|-4-4--------4---|
E|---------2-2----|---------4-4----|---------2-2----|---------4-4----|

G|------------------|-----------------|----------------|----------------|
D|------------------|-----------------|----------------|----------------| 
A|-1-1/13-----------|-4-4/16------4---|-6-6-6-6-6-6-68-|-9--------------|
E|----------2-2/14--|----------4-4----|----------------|----------------|
Comments