Simple Plan - Welcome To My Life Chords & Tabs

 

Welcome To My Life Chords & Tabs

Simple Plan Chords & Tabs

Version: 4 Type: Bass Tab 0 ratings
1 star 2 stars 3 stars 4 stars 5 stars
comments

Welcome To My Life Bass Tab

   
WELCOMR TO MY LIFE 
SIMPLE PLAN          

VERSE             WAIT TILL 0:11
G---------------------------------|
D---------------------------------|
A--22-222--------22-222-----------|
E---------44-444-----------22-222-|x1


PRE CHORUS
G---------------------------------|
D---------------------------------|
A---------------------------------|
E-00-000---44-444---00-000----2---|


CHORUS
G---------------------------------|
D---------------------------------|
A----------22---------------------|
E-44--00-------22-----------------|X2

AFTER CHORUS
G---------------------------------|
D---------------------------------|
A-----------2222------44444444----|
E-4444-0000------2222----------0--|

VERSE 
G---------------------------------|
D---------------------------------|
A--22-222--------22-222-----------|
E---------44-444--------22-22-----| 

PRE CHORUS
G-------------------------------------|
D-------------------------------------|
A-------------------------------------|
E-00-000---44-444---00-000---22222222-| 
[ Tab from: http://www.guitartabs.cc/tabs/s/simple_plan/welcome_to_my_life_btab_ver_4.html ]
CHORUS
G---------------------------------------------|
D---------------------------------------------|
A----------22-------------------2222----------|
E-44--00-------22---4444--0000--------2222----|

AFTER CHORUS
G---------------------------------|
D---------------------------------|
A-----------2222------44444444----|
E-4444-0000------2222----------0--|

BRIDGE
G---------------------------------|
D---------------------------------|
A-------------------------2222----|
E-0000-00-4444-44-0000-00-----2222|

G---------------------------------|
D---------------------------------|
A---------------------------------|
E-0000-00-4444-44-0000-00-22222222|

DONT PLAY IN THE SLOW PART

AFTER CHORUS
G---------------------------------------|
D---------------------------------------|
A-----------2222------44444444----------|
E-4444-0000------2222----------00000000-|

CHORUS
G---------------------------------|
D---------------------------------|
A-------22------------------------|
E-44-00----22---------------------|X2

AFTER CHORUS
G---------------------------------|
D---------------------------------|
A-----------2222------44444444----|
E-4444-0000------2222----------0--|

DONT PLAY ANYTHING UNTILL THE LAST NOTE OF THE SONG
WHICH IS
G-------------|
D-------------|
A-------------|
E-2-----------|

HOPE YOU ENJOY 
TAB BY DAVID TOWNSEND
Comments