Simple Plan - Welcome To My Life Chords & Tabs

 

Welcome To My Life Chords & Tabs

Simple Plan Chords & Tabs

Version: 3 Type: Bass Tab 0 ratings
1 star 2 stars 3 stars 4 stars 5 stars
comments

Welcome To My Life Bass Tab

Spogagi1
~ = Hold
Intro: Guitar only

Bass comes in at: 11

1st Verse
G------------------------------------------------------|
D------------------------------------------------------|
A-44-44------------------------45--------43------------|
E-------66-66-22-22-44-44-22-2----5-66-6----3-22-22-4~-|

Chores
G---------------------------------------------------------------------|
D---------------------------------------------------------------------|
A-----------44-------------44-----------------4444-------66666-889~4~-|
E -4-66-22------44-4-66-22-----44-4-6666-2222------4444---------------|

2nd Verse
G-----------------------------|
D-----------------------------|
A-44-44-----------------------|
E----------66-66-22-22-44-44--|

G------------------------------------------------------|
D------------------------------------------------------|
A-44-44-----------------------45---------43------------|
E------66-66-22-22-44-44-22-2----5-66-6----3-22-22-4~--|
[ Tab from: http://www.guitartabs.cc/tabs/s/simple_plan/welcome_to_my_life_btab_ver_3.html ]
Chores
G-----------------------------------------------------------------|
D-----------------------------------------------------------------|
A----------44------------44---------------4444-------66666-889~4~-|
E -4-66-22----44-4-66-22---44-4-6666-2222------4444---------------|

3rd Verse
G-------------------------------------------------------------|
D-------------------------------------------------------------|
A----------------------3333--------------------66666-88999999-|
E-22-222-66-666-22-222------3333-22-222-66-666----------------|

Chores
G----------------------------------------|
D----------------------------------------|
A-------------4444-------66666-88999999~-|
E-4-6666-2222------4444------------------|

G----------------------------------------------------------------------------|
D----------------------------------------------------------------------------|
A-------------4444----------------4444----------------4444------66666-889~4~-|
E -4-6666-2222----4444-4-6666-2222----4444-4-6666-2222------4444-------------|
Comments