Simple Plan - Welcome To My Life Chords & Tabs

 

Welcome To My Life Chords & Tabs

Simple Plan Chords & Tabs

Version: 1 Type: Bass Tab 0 ratings
1 star 2 stars 3 stars 4 stars 5 stars
comments

Welcome To My Life Bass Tab

verse 1
|---------------------------------------------------------------------------|
|---------------------------------------------------------------------------|
|------5-5-----5-5------2-2----2-2------------------------------------------|
|-----------5----------------2---------3-3-0--3-3-----5-5--0-5-5--3-3-0-3-3-|


Pre-chorus
|---------------------------------------------------------------------------|
|---------------------------------------------------------------------------|
|---5--4----2-2---4--2----------2-------------------------------------------|
|---------5--------------5---3-3---5---2----0-0-----------------------------|

[ Tab from: http://www.guitartabs.cc/tabs/s/simple_plan/welcome_to_my_life_btab.html ]
Chorus
|---------------------------------------------------------------------------|
|---------------------------------------------------------------------------|
|-----5-5-----5-5----------5--2-2-----5-5-----2-2/10------------------------|
|---------3-3------5-5--5---------3-3-----5-5---------3-3/10----5-5/12--5-5-|

|---------------------------------------------------------------------------|
|---------------------------------------------------------------------------|
|---------------------------------------------------------------------------|
|--0-0-0-0-0-0-0-2-3--------------------------------------------------------|

Verse 2:same as verse 1 except do it twice!

Repeat Chorus

Bridge
|-------------------------------------------------------------------------|
|-------------------------------------------------------------------------|x2
|----2-2--2-2--2-5----4-4--4-4--4-5----2-2--2-2--2-5-----5-5-5---5--------|
|--------------------------------------------------------------------5----|

Repeat chorus x2

That's It! Thanks!
Comments