Simple Plan - Vacation Chords & Tabs

 

Vacation Chords & Tabs

Simple Plan Chords & Tabs

Version: 1 Type: Tab 0 ratings
1 star 2 stars 3 stars 4 stars 5 stars
comments

Vacation Tab

It is a great song for the "New York Minute" movie

Verse
All the way to the chorus

Eb|--------------------------------------------------------|
Bb|--------------------------------------------------------|
Gb|--------------------------------------------------------|
Db|--------------------------------------------------------|
Ab|--7-7-7-7----7-7-7--------------------------------------|
Eb|---------------------5-5-5-5-7-7-7-7--------------------|

Chorus

Eb|--------------------------------------------------------|
Bb|--------------------------------------------------------|
Gb|--99999999----------------------------------------------|
Db|--99999999--55555555--9999999--7-6-7-6-7-9--------------|
Ab|--77777777--55555555--9999999--7-6-7-6-7-9--------------|
Eb|------------77777777--7777777--5-4-5-4-5-7--------------|

Eb|---------------------------------------------------------|
Bb|---------------------------------------------------------|
Gb|--99999999-----------------------------------------------|
Db|--99999999--99999999--10-10-10-10-10-10-10-10-10----------|
Ab|--77777777--99999999--10-10-10-10-10-10-10-10-10----------|
Eb|------------77777777--8--8--8--8--8--8--8--8--8---------|

Eb|--------------------------------------------------------|
Bb|--------------------------------------------------------|
Gb|--------------------------------------------------------|
Db|--9--10-10--9-10-10--9--10-9----------------------------|
Ab|--9--10-10--9-10-10--9--10-9----------------------------|
Eb|--7--8--8---7-8--8---7--8--7----------------------------|

Eb|--------------------------------------------------------|
Bb|--------------------------------------------------------|
Gb|--99999999----------------------------------------------|
Db|--99999999--55555555--9999999--5-5-5-5-5----------------|
Ab|--77777777--55555555--9999999--7-7-7-7-7----------------|
Eb|------------77777777--7777777--7-7-7-7-7----------------|

2nd Verse is the same except this time play these instead of only one string
----------------------
----------------------
-----9----------------
-----9----7-----9-----
-----7----7-----9-----
----------5-----7-----

2nd Chorus is the same as well


Bridge
[ Tab from: http://www.guitartabs.cc/tabs/s/simple_plan/vacation_tab.html ]
Eb|------------------------------------------------|
Bb|------------------------------------------------|
Gb|-----------------------------------8------------|
Db|--9-11-9-6-7-9-2-2-2---------------8------------|
Ab|--9-11-9-6-7-9-2-2-2---x 4 times---6------------|
Eb|--7-9--7-4-5-7-0-0-0----------------------------|

Solo

Eb|----------------------12-11----12-12-11-----------------|
Bb|------12-10-9---------------12----------12--------------|
Gb|--7/9---------9-----------------------------------------|
Db|--------------------------------------------------------|
Ab|--------------------------------------------------------|
Eb|--------------------------------------------------------|

Eb|--------------------------------------------------------|
Bb|--------------------------------------------------------|
Gb|---13/11-11/9-9/8-8/9-9-8-8-6---------------------------|
Db|------------------------------9-------------------------|
Ab|--------------------------------------------------------|
Eb|--------------------------------------------------------|

Eb|--------------------------------------------------------|
Bb|-------12-----12---------12-----------------------------|
Gb|---8-9----8-9----8-9-8-9----9-8-9898-6-4----------------|
Db|--------------------------------------------------------|
Ab|--------------------------------------------------------|
Eb|--------------------------------------------------------|

Eb|--------------------------------------------------------|
Bb|--------------------------------------------------------|
Gb|--13~~--13-13-13-13-16--16-16-16-16-16------------------|
Db|--------------------------------------------------------|
Ab|--------------------------------------------------------|
Eb|--------------------------------------------------------|

Eb|--------------------------------------------------------|
Bb|--------------------------------------------------------|
Gb|----21-20-20----20---21-20-20----20---20-20-21~~~~~~~---|
Db|-------------21---------------21------------------------|
Ab|--------------------------------------------------------|
Eb|--------------------------------------------------------|

Then Chours then ends with the bridge
Listern to the timing and the end!
Hope I got it right! Have Fun!

MK&Ash addicted
Comments