Simple Plan - Untitled Chords & Tabs

 

Untitled Chords & Tabs

Simple Plan Chords & Tabs

Version: 6 Type: Tab 0 ratings
1 star 2 stars 3 stars 4 stars 5 stars
comments

Untitled Tab

Untitled - Simple Plan

Hey guys!!! hope u'll like this one... e2 ung solo ng lead!!!
kayo nlang maghusga kung ok....hi nga pala sa mga Comsci studs 3rd yr.
ng Western Midanao State University (WMSU) specially kay Xtian, Ryan, Alter, Knash, 
Jumar, Jessie, Rainer, Rey....


e|----------------------------|
B|----------------------------|
G|----------------------------|
D|---------8/10-8-6-8---------|
A|---6-6-8--------------------|
E|----------------------------|
[ Tab from: http://www.guitartabs.cc/tabs/s/simple_plan/untitled_tab_ver_6.html ]
e|-----------------------------------|
B|-----------------10/14-11-9-9h11-9-|
G|------------8-10-------------------|
D|---6-8-8/10------------------------|
A|-----------------------------------|
E|-----------------------------------|

e|---9-8-----------------------------|
B|-------9---------------------------|
G|---------8-10-8--------------------|
D|-----------------------------------|
A|-----------------------------------|
E|-----------------------------------|


hehehe!!! rate nyo nalang!! pakinggan nyo rin ung song para u'll knw d timing!!!! au revoir!!!
Comments