Simple Plan - Untitled Chords & Tabs

 

Untitled Chords & Tabs

Simple Plan Chords & Tabs

Version: 4 Type: Tab 0 ratings
1 star 2 stars 3 stars 4 stars 5 stars
comments

Untitled Tab

   
Song: Untitled Solo
Artist: Simple Plan
Album: Still Not Getting Any...
Tuning: Half step down
Tabbed By: GuitarAmp58

h=Hammer
p=Pull off
b=Bend
/=Slide up
\=Slide down
~=Let it ring
v=Pinch Harmonic
x=Dead note
.=Palm mute
<>=Natural Harmonic

This is my first tab, so if anything is wrong please post corrections.
[ Tab from: http://www.guitartabs.cc/tabs/s/simple_plan/untitled_tab_ver_4.html ]
Play it with heavy distortion
eb|---------------------------------------------------------------|
Bb|---------------------------11b-9h11p9~-12h14p12----------------|
Gb|-----------------------7-9---------------------12~-------------|
Db|----3h5/7-5-3-5~-3h5/7----------------------------12-12/14\12--|
Ab|-3~--------------------------------------------------12/14\12--|
Eb|---------------------------------------------------------------|

You could play it this way if it is easier
eb|--------------------------------------7h9p7--------------------|
Bb|--------------------------11b-9h11p9~-------7~-----------------|
Gb|---0h2h4-2-0-2~-0h2h4-7-9---------------------7-7/9\7----------|
Db|-0~---------------------------------------------7/9\7----------|
Ab|---------------------------------------------------------------|
Eb|---------------------------------------------------------------|
Comments