Simple Plan - Untitled Chords & Tabs

 

Untitled Chords & Tabs

Simple Plan Chords & Tabs

Version: 1 Type: Tab 1 rating
1 star 2 stars 3 stars 4 stars 5 stars
comments

Untitled Tab

   
UNTITLED
Simple Plan
Tabbed by:  Ronald N. Ta-a (NorthStarr)
	     	
This is my first tab. Most part of the song is played in piano so I
just transcribed it based on what I heard from the song. This is not
absolutely perfect and I apologize for that but I hope that it's 
close enough from the song.For your comments, suggestions and 
corrections, please feel free to email me at: northstarr25@yahoo.com. 
Note northstarr is double r.
Thank you very much. This song goes out to all music lovers.
Hope you'll like it. 
This is a great song!!!


Chords Used: E  := 022100
             C#m:= x46654
             B  := x24442
             A  := x02220

Intro: E/Higher E

The intro I think is played on the 7th fret. But I think you can 
also play it as E major, unfortunately I don't know how to play it
with E major so I used the higher E. Just play the song in a 
continuous manner, you can easily figure that out.
                                              
E--------------------------------------------------------------------
B----------7---9------------7---9------------7---9-------------------
G------9-----9---9------9-----9---9------9-----9---9-----------------
D----9---9------------9---9-------------9---9------------------------
A--7----------------7-----------------7------------------------------
E--------------------------------------------------------------------
   
Verse1:

E--------------------------------------------------------------------
B----------------4----5-----------------4------5---------------------
G----------6-------6----6--------6----------6------6-----------------
D-------6-----6---------------6-----6--------------------------------
A----4---------------------4-----------------------------------------
E--------------------------------------------------------------------
   I open my eyes I try to see but I'm blinded by the 


E--------------------------------------------------------------------
B------------7---9-------------7---9-------------------4-----5-------
G-------9------9---9------9------9---9------------6-------6-----6----
D-----9---9-------------9---9-------------------6---6----------------
A---7-----------------7----------------------4-----------------------
E--------------------------------------------------------------------
    white light                  I can't re- member how I can't re- 

E-----------------------------------------------2--------------------
B------------4---5-------------7---9----------4---4------------------
G-------6------6---6-------9-----9---9------4-------4----------------
D-----6---6--------------9---9------------4------------4-------------
A---4------------------7----------------2----------------------------
E--------------------------------------------------------------------
    member   why,  I'm lying here  tonight          And I


E--------0------------------2---------------0-----------------4------
B--------------2----------4---4-------------------2---------5---5----
G------2-----2---2------4-------4---------2-----2---2-----6-------6--
D----2-----2----------4------------4----2-----2---------6-----------6
A--0----------------2-----------------0---------------4--------------
E--------------------------------------------------------------------
   can't stand the  pain       And I  can't make it   go away    No I
[ Tab from: http://www.guitartabs.cc/tabs/s/simple_plan/untitled_tab.html ]
E--------0------------------2----------------------------------------
B--------------2--------4-----4---4-------------------4---5--4--5----
G------2-----2---2----4---4-----4----------4-------------------------
D----2-----2---------------------------4---------4-------------------
A--0----------------2----------------2-------------------------------
E--------------------------------------------------------------------
   can't stand the  pain               How could this happen to me 

E--------------------------------------------------------0-----------
B-------------------------------4---5---4---5----------------2-------
G----------8-9-8-9-------6---------------------------2-----2---2-----
D------9---------------6---6-----------------------2---2-------------
A----7---7----------4----------------------------0-------------------
E--0-----------------------------------------------------------------
   I made my mistakes, I've got nowhere to  run  The  night  goes 

E--------------------------------------------------------------------
B--------------4---5--4-5---------------------------------4-5-4-5----
G---------4--------------------------8--9--8--9------6---------------
D-------4---4--------------------9-----------------6---6-------------
A---2-------------------------7----7-------------4-------------------
E---------------------------0----------------------------------------
    on  As I'm fading away  I'm     sick of this life, I just wanna 

E-----------0--------------------------------------------------------
B---------------2-------------------4--5---4--5----------------------
G-------2-----2---2------------4-------------------------------------
D-----2---2--------------4-------4-----------------------------------
A---0----------------2-----------------------------------------------
E--------------------------------------------------------------------
    screa---m        How could this happen to me

E--------------------------------------------------------------------
B----------7---9------------7---9------------7---9-------------------
G------9-----9---9------9-----9---9------9-----9---9-----------------
D----9---9------------9---9-------------9---9------------------------
A--7----------------7-----------------7------------------------------
E--------------------------------------------------------------------

Verse2: (Same us verse 1)

Everybody's screamin', I try to make a sound
But no one hears me
I'm slipping off the edge
I'm hanging by a thread
I wanna this over again

So, I try to hold onto a time
When nothing mattered
And I can't explain what happened
And I can't erase the things that I've done
No I can't

How could this happen to me
I've made my mistakes
I've got nowhere to run
Thenight goes on as I'm fading away
I'm sick of this life
I just want to scream
How could this happen to me 

Adlib: E-C#m-B-A-B-C#m (Solo)

Last part/chord of solo lead: C#m (Adlib part)

E------------------------------------------------------------------
B------------4---5--------------4---5------------------------------
G-------6------6---6-------6------6---6----------------------------
D-----6---6--------------6---6-------------------------------------
A---4------------------4-------------------------------------------
E------------------------------------------------------------------

This part I think is also used on every last line of verse 1 & 2. 
You can hear it from the song, so just add whatever I missed, besides 
it's really hard to transcribed from piano to guitar.

REFRAIN

I haven't figured out yet the solo guitar part after the second 
refrain. So if ever someone has the tab for that part, please post 
it on guitartabs. This way I can complete my first tab and we can
play the song easily and completely. Thanks!@!!!!

northstarr25@yahoo.com
Comments