Simple Plan - Thank You Chords & Tabs

 

Thank You Chords & Tabs

Simple Plan Chords & Tabs

Version: 1 Type: Tab 1 rating
1 star 2 stars 3 stars 4 stars 5 stars
comments

Thank You Tab

Band - Simple Plan
Song - Thank you
Tuning - Standard 
Tabbed by - Finbarr

Key:
X = Scratch/tip string
. = Palm Muting


This Song is prob my fav song on the cd and no one had tabbed it so i thought id give it ago.
Its quite fast

Intro/Main Riff/guitar 2(fast):
e|-------------------------------------------------|
b|-------------------------------------------------|
g|-11--10--8--10--8--6------8--10--6--6-6--6-------|
d|--X---X--X---X--X--X--x2--X---X--X--X-X--X---x2--|
a|--9---8--6---8--6--4------6---8--4--4-4--4-------|
e|-------------------------------------------------|

Intro/Main Riff/guitar 2(fast)Cont'd:
e|----------------------------------------------------------|
b|----------------------------------------------------------|
g|-11--10--8--10--8--6------8--10--6--6-6--6---8-10--8--6-6-|
d|--X---X--X---X--X--X--x2--X---X--X--X-X--X---x--x--x--x-x-|
a|--9---8--6---8--6--4------6---8--4--4-4--4---6--8--6--4-4-|
e|----------------------------------------------------------|

Intro/Main Riff/guitar 1 (fast):
e|-------------------------------------------------|
b|-------------------------------------------------|
g|-666666666666------------------------------------|
d|-666666666666-444444444444--x2-----88--66--------|
a|-444444444444-444444444444---------88--66---x1---|
e|--------------222222222222---------66--44--------|

Verse 1:I thought that I could always count on you...
e|------|
b|------|
g|-6~~--|
d|-6~~--|
a|-4~~--|
e|------|
[ Tab from: http://www.guitartabs.cc/tabs/s/simple_plan/thank_you_tab.html ]
Pre-Chorus:But I was stupid and you brought me.....
e|------------------------------------------------|
b|------------------------------------------------|
g|-8-8--------6-6--------8-8----------------------|
d|-8-8-4-4-4--6-6-6-6-6--8-8-4-4-4--6-6-6--6-6-6--|
a|-6-6-4-4-4--4-4-6-6-6--6-6-4-4-4--6-6-6--6-6-6--|
e|-----2-2-2------4-4-4------2-2-2--4-4-4--4-4-4--|

Chorus/guitar 1+2 (fast)x2:Thank You for showing me....
e|-----------------------|
b|-----------------------|
g|-6---------------------|you work out strumming
d|-6-x8-4----8----6------|
a|-4----4-x8-8-x8-6-x8---|
e|------2----6----4------|


Play both main riffs


Verse 2(fast):I wonder why it always has to hurt...
e|X-------XXX------X-------XXX--------|
b|X-------XXX------X-------XXX--------|
g|X-6-6--6XXX6-6--6X-------XXX--------|
d|X-6-6--6XXX6-6--6X-4-4--4XXX-4-4-4-4|
a|X-4-4--4XXX4-4--4X-4-4--4XXX-4-4-4-4|
e|X-------XXX------X-2-2--2XXX-2-2-2-2|

Verse 2 Cont'd(fast):
e|X-------XXX------X---------------------------|
b|X-------XXX------X---------------------------|
g|X-6-6--6XXX6-6--6X---------------------------|
d|X-6-6--6XXX6-6--6X-4-4--4~--4-4--4~--4-4--4~-|
a|X-4-4--4XXX4-4--4X-4-4--4~--4-4--4~--4-4--4~-|
e|X-------XXX------X-2-2--2~--2-2--2~--2-2--2~-|
P.M:                ....      ....     .... 


Pre Chorus 


Chorus


Interlude (slow): When the tables turn again.....
e|-------------------------------------------------|
b|-------------------------------------------6--2--|
g|-------0-------------0--------------0------------|
d|----6----6--------6-----6--------6------6--------|x3?
a|-4----------4--4-----------4--4------------------|
e|-------------------------------------------------|

Play Chorus 2x

Finish
e|-----|
b|-----|
g|-6~~-|
d|-6~~-|
a|-4~~-|
e|-----|


Dats it Enjoi
Any probs or stuff email Ryder_213@hotmail.com
Ryder beats all da homeboys!
Grove street 4 life
Comments