Simple Plan - Shut Up Chords & Tabs

 

Shut Up Chords & Tabs

Simple Plan Chords & Tabs

Version: 6 Type: Tab 0 ratings
1 star 2 stars 3 stars 4 stars 5 stars
comments

Shut Up Tab

rithm guitar  (sebastien)

intro        
e|---------------------------------------------------------------------|
B|---------------------------------------------------------------------|(x2)
G|------7777777777777777-----------------------------------------------|
D|-7-7--7777777777777777-555555555555----------------------------------|
A|-7-7--5555555555555555-555555555555----------------------------------|
E|-5-5-------------------333333333333----------------------------------|

end of intro
e|---------------------------------------------------------------------|
B|---------------------------------------------------------------------|
G|-----7\--------------------------------------------------------------|
D|-7-7-7\--------------------------------------------------------------|
A|-7-7-5\--------------------------------------------------------------|
E|-5-5-----------------------------------------------------------------|

verse 1
e|---------------------------------------------------------------------|
B|---------------------------------------------------------------------|(x2)
G|-77777777--------------------------7\--------------------------------|
D|-7777777755555555777777775555--7-7-7\--------------------------------|
A|-5555555555555555777777775555--7-7-5\--------------------------------|
E|---------33333333555555553333--5-5-----------------------------------|
   ............................

pre-chorus (it seems like everyday...)   
e|---------------------------------------------------------------------|
B|---------------------------------------------------------------------|
G|----------------------------------7-------------------------/12------|
D|-9-9-xxxx-7-7-xxxx-5-5-xxxx-7-7-x-7--9-9-xxxx-7-7-xxxx-5--5-/10------|
A|-9-9-xxxx-7-7-xxxx-5-5-xxxx-7-7-x-5--9-9-xxxx-7-7-xxxx-5--5-/10------|
E|-7-7-xxxx-5-5-xxxx-3-3-xxxx-5-5-x----7-7-xxxx-5-5-xxxx-3--3----------|


chorus
e|---------------------------------------------------------------------|
B|---------------------------------------------------------------------|(x2)
G|-777777777777-----444444444444---------------------------------------|
D|-777777777777-7-7-444444444444-5-7-----------------------------------|
A|-555555555555-7-7-222222222222-5-7-----------------------------------|
E|--------------5-5--------------3-5-----------------------------------|

intro        
e|---------------------------------------------------------------------|
B|---------------------------------------------------------------------|(x2)
G|------7777777777777777-----------------------------------------------|
D|-7-7--7777777777777777-555555555555----------------------------------|
A|-7-7--5555555555555555-555555555555----------------------------------|
E|-5-5-------------------333333333333----------------------------------|

end of intro
e|---------------------------------------------------------------------|
B|---------------------------------------------------------------------|
G|-----7\--------------------------------------------------------------|
D|-7-7-7\--------------------------------------------------------------|
A|-7-7-5\--------------------------------------------------------------|
E|-5-5-----------------------------------------------------------------|

verse 2
e|---------------------------------------------------------------------|
B|---------------------------------------------------------------------|(x2)
G|-77777777--------------------------7\--------------------------------|
D|-7777777755555555777777775555--7-7-7\--------------------------------|
A|-5555555555555555777777775555--7-7-5\--------------------------------|
E|---------33333333555555553333--5-5-----------------------------------|
   ............................

pre-chorus (You're always there to point...)   
e|---------------------------------------------------------------------|
B|---------------------------------------------------------------------|
G|----------------------------------7-------------------------/12------|
D|-9-9-xxxx-7-7-xxxx-5-5-xxxx-7-7-x-7--9-9-xxxx-7-7-xxxx-5--5-/12------|
A|-9-9-xxxx-7-7-xxxx-5-5-xxxx-7-7-x-5--9-9-xxxx-7-7-xxxx-5--5-/10------|
E|-7-7-xxxx-5-5-xxxx-3-3-xxxx-5-5-x----7-7-xxxx-5-5-xxxx-3--3----------|
[ Tab from: http://www.guitartabs.cc/tabs/s/simple_plan/shut_up_tab_ver_6.html ]
chorus
e|---------------------------------------------------------------------|
B|---------------------------------------------------------------------|(x2)
G|-777777777777-----444444444444---------------------------------------|
D|-777777777777-7-7-444444444444-5-7-----------------------------------|
A|-555555555555-7-7-222222222222-5-7-----------------------------------|
E|--------------5-5--------------3-5-----------------------------------|

intro        
e|---------------------------------------------------------------------|
B|---------------------------------------------------------------------|(x2)
G|------7777777777777777-----------------------------------------------|
D|-7-7--7777777777777777-555555555555----------------------------------|
A|-7-7--5555555555555555-555555555555----------------------------------|
E|-5-5-------------------333333333333----------------------------------|

end of intro
e|---------------------------------------------------------------------|
B|---------------------------------------------------------------------|
G|-----7\--------------------------------------------------------------|
D|-7-7-7\--------------------------------------------------------------|
A|-7-7-5\--------------------------------------------------------------|
E|-5-5-----------------------------------------------------------------|

bridge (I don't wanna waste my time...)clean part played by lead guitar
e|---------------------------------------------------------------------|
B|---------------------------------------------------------------------|
G|-7-7\----------------------------------------------------------------|
D|-7-7\-7-7\-5555555555555555------------------------------------------|
A|-5-5\-7-7\-5555555555555555------------------------------------------|
E|------5-5\-3333333333333333------------------------------------------|


Lead guitar (Jeff)

intro
e|------------------------------------------------------------------0-0|
B|--(5)-(5)-7-8-8-7-8-8-7-8-8-7-8-8-8-7-5-3-7-8-8-7-8-8-7-8-8-7-8-8-5-5|(x2)
G|---------------------------------------------------------------------|
D|---------------------------------------------------------------------|
A|---------------------------------------------------------------------|
E|---------------------------------------------------------------------|

end of intro
e|---------------------------------------------------------------------|
B|---------------------------------------------------------------------|
G|-----7\--------------------------------------------------------------|
D|-7-7-7\--------------------------------------------------------------|
A|-7-7-5\--------------------------------------------------------------|
E|-5-5-----------------------------------------------------------------|

verse 1, pre-chorus and chorus are the same as rithm guitar

intro
e|------------------------------------------------------------------0-0|
B|----------7-8-8-7-8-8-7-8-8-7-8-8-8-7-5-3-7-8-8-7-8-8-7-8-8-7-8-8-5-5|(x2)
G|---------------------------------------------------------------------|
D|---------------------------------------------------------------------|
A|---------------------------------------------------------------------|
E|---------------------------------------------------------------------|

verse 2 second part
e|---------------------------------------------------------------------|
B|---------------------------------------------------------------------|
G|---------------------------------------------------------------------|
D|----4x7x54--4x7x54--4x7x54--4x7x54-----------------------------------|
A|---------------------------------------------------------------------|
E|---------------------------------------------------------------------|

bridge
e|---------------------------------------------------------------------|
B|-----3-------3-------3--------3--------------------------------------|
G|---2---2---2---2---2---2----2---2------------------------------------|
D|-0-------------------------------------------------------------------|
A|---------0----------------0------------------------------------------|
E|-----------------3---------------------------------------------------|

(I don't wanna waste my time...)
e|---------------------------------------------------------------------|
B|---------------------------------------------------------------------|
G|-7-7\----------------------------------------------------------------|
D|-7-7\-7-7\-----------------------------------------------------------|
A|-5-5\-7-7\--pick slide-----------------------------------------------|
E|------5-5\-----------------------------------------------------------|

chorus
Comments