Simple Plan - Shut Up Chords & Tabs

 

Shut Up Chords & Tabs

Simple Plan Chords & Tabs

Version: 5 Type: Tab 0 ratings
1 star 2 stars 3 stars 4 stars 5 stars
comments

Shut Up Tab

----------------------------------------------------------------------------
Shut Up- Simple Plan- Still Not Gettin Any.
------------------------------------------------------------------------------------------
Tabbed by: Lauren Rothschild
Email: rockerchick509@bellsouth.net

this is a pretty acurate tab...its only my second tab...thanks for checkin it out..simple plan rocks

Tuning: Standard

                            intro
e|-------------------------------------------------------------------------|
B|--4-4-|--6-7-7-6-7-7-6-7-7-6-7-7-7-6-------6-7-7-6-7-7-6-7-7-6-7-7-7-6---|
G|------|-----------------------------8-6------------------------------8-8-|
D|------|------------------------------------------------------------------|
A|-------------------------------------------------------------------------|
E|-------------------------------------------------------------------------|


                            verse
e|-------------------------------------------------------------------------|
B|-------------------------------------------------------------------------|
G|-------------------------------------------------------------------------|
D|----66666666--------------------------------|----------------------------|
A|----44444444--44444444-66666666--44444444---|--x2------------------------|
E|--------------22222222-44444444--22222222---|----------------------------|
  ................................palm mute................................


                           pre-chorus
e|-------------------------------------------------------------------------|
B|-------------------------------------------------------------------------|
G|-------------------------------------------------------------------------|
D|--------------------6----------------------------------------------------|
A|-----88--66--44--66-4---88--66--444--------------------------------------|
E|-----66--44--22--44-----66--44--222--------------------------------------|

                            chorus
e|------------------------------------------------------------------------|
B|------------------------------------------------------------------------|
G|------------------------------------------------------------------------|
D|----6----------------------------6--------------------------------------|
A|----4--x12-66---8--------4--6----4--x12---66---8------4--6--------------|
E|-----------44---6-x12----2--4-------------44---6-x12--2--4--------------|


e|-------------------------------------------------------------------------|
B|--6-7-7-6-7-7-6-7-7-6-7-7-7-6-------6-7-7-6-7-7-6-7-7-6-7-7-7-6----------|
G|--------------------------------8-6-------------------------------8-8----|
D|-------------------------------------------------------------------------|
A|-------------------------------------------------------------------------|
E|-------------------------------------------------------------------------|
[ Tab from: http://www.guitartabs.cc/tabs/s/simple_plan/shut_up_tab_ver_5.html ]
verse
e|-------------------------------------------------------------------------|
B|-------------------------------------------------------------------------|
G|-------------------------------------------------------------------------|
D|----66666666--------------------------------|----------------------------|
A|----44444444--44444444-66666666--44444444---|--x2------------------------|
E|--------------22222222-44444444--22222222---|----------------------------|
  ................................palm mute................................


                           pre-chorus
e|-------------------------------------------------------------------------|
B|-------------------------------------------------------------------------|
G|-------------------------------------------------------------------------|
D|--------------------6----------------------------------------------------|
A|-----88--66--44--66-4---88--66--444--------------------------------------|
E|-----66--44--22--44-----66--44--222--------------------------------------|

                            chorus
e|------------------------------------------------------------------------|
B|------------------------------------------------------------------------|
G|------------------------------------------------------------------------|
D|----6----------------------------6--------------------------------------|
A|----4--x12-66---8--------4--6----4--x12---66---8------4--6--------------|
E|-----------44---6-x12----2--4-------------44---6-x12--2--4--------------|

                           bridge (played on bass)

e|------------------------------------------------------------------------|
B|------------------------------------------------------------------------|
G|------------------------------------------------------------------------|
D|------------------------------------------------------------------------|
A|------4--------4--------4---------4---------4---------------------------|
E|--------4-2-4----4-2-4----44-2-44---44-2-44----44-2-44------------------|

                                      chorus
e|------------------------------------------------------------------------|
B|------------------------------------------------------------------------|
G|------------------------------------------------------------------------|
D|--------------------------------6---------------------------------------|
A|-------66---8--------4--6----4--x12---66---8------4--6------------------|
E|-----------44---6-x12----2--4-------------44---6-x12--2--4--------------|

e|-------------------------------------------------------------------------|
B|--6-7-7-6-7-7-6-7-7-6-7-7-7-6-------6-7-7-6-7-7-6-7-7-6-7-7-7-6----------|
G|--------------------------------8-6-------------------------------8-8----|
D|-------------------------------------------------------------------------|
A|-------------------------------------------------------------------------|
E|-------------------------------------------------------------------------|

                       end on...
e|-------------------------------------------------------------------------|
B|-------------------------------------------------------------------------|
G|-------------------------------------------------------------------------|
D|----66--66--66-----------------------------------------------------------|
A|----44--44--44-----------------------------------------------------------|
E|-------------------------------------------------------------------------|
Comments