Simple Plan - Shut Up Chords & Tabs

 

Shut Up Chords & Tabs

Simple Plan Chords & Tabs

Version: 4 Type: Tab 0 ratings
1 star 2 stars 3 stars 4 stars 5 stars
comments

Shut Up Tab

-----------------------------------------------------------------------------
			   Shut Up-Simple Plan
-----------------------------------------------------------------------------
Song:Shut up!
Artist:Simple Plan
Album:Still Not Getting Any...
Tabbed by:Ryan Kappy

Tuning: DROP D TUNING!! (DADGBe)
.=pm

Intro

               GUITAR 1                                GUITAR 2
e|-----------------------------------------I-----------------------------|I
B|-----------------------------------------I-677-677-677-677-4-2-(x4)----|I
G|-------------------------6---------------I-----------------------------|I
D|--4------------------66--6-66-4-6--------I-----------------------------|I
A|--4-(turn up volume)-66--4-66-4-6-(x2)---I-----------------------------|I
E|--4------------------66----66-4-6--------I-----------------------------|I

Verse

e|-----------------------------|I
B|-----------------------------|I
G|-----------------------------|I
D|--6-----------6--------------|I
A|--4-4-6-4-6-6-4---(x2)-------|I
E|----4-6-4-6-6----------------|I
    . . . .

Pre-Chorus
[ Tab from: http://www.guitartabs.cc/tabs/s/simple_plan/shut_up_tab_ver_4.html ]
e|------------------------------------|I
B|------------------------------------|I
G|-----------------6------------------|I
D|---8-x-6-x-4-x-6-6--(x2)------------|I
A|---8-x-6-x-4-x-6-4------------------|I
E|---8-x-6-x-4-x-6--------------------|I

Chorus

e|----------------------------------|I
B|----------------------------------|I
G|---6666---------------------------|I
D|---6666-66-8888-4-6---------------|I
A|---4444-66-8888-4-6--(x2)---------|I
E|--------66-8888-4-6---------------|I

Repeat Intro

Repeat Verse
On 2nd verse, play this in the background

DI----3-6-4-3-----I

Repeat Pre-chorus

Repeat Chorus

Repeat Intro

Bridge

e|------------------------------------------------------|
B|------------------------------------------------------|
G|------6----6----6-----6-----------66------------------|
D|-----6-6--6-6--6-6---6-6-- (x4)---66-66---------------|
A|----4-----------------------------44-66---------------|
E|---------6----4-----6----------------66-(pick slide)--|

Repeat Chorus

Repeat Intro

That's pretty much it. This is my 2nd tab so comment on anything. Figure out strumming. 
a very good song.
Comments