Simple Plan - Shut Up Chords & Tabs

 

Shut Up Chords & Tabs

Simple Plan Chords & Tabs

Version: 3 Type: Tab 0 ratings
1 star 2 stars 3 stars 4 stars 5 stars
comments

Shut Up Tab

second tab..i <333 twos.. second.. woot

Shut up! - Simple Plan
From Still Not Getting Any...

BY Xx22xX
www.xanga.com/Xx22xX
its_brian_22@hotmail.com

Intro

Guitar 1
			X2
---------|-------------------------------------|
---------|-------------------------------------|
---------|--66666666666666---------------------|
-----66--|--6666666666666666-444444444444-6~6~-|
-----66--|--4444444444444466-444444444444-6~6~-|
-----44--|----------------44-222222222222-4~4~-|

Guitar 2			X2
--------------------|-----------------------------------------|
--------------------|---677-677-677-677-67-6-4----------------|
--------------------|--------------------------4~-------------|
4~------------------|-----------------------------------------|
4~(turn up volume)--|-----------------------------------------|
2~------------------|-----------------------------------------|

Verse		

Guitar 1
    X2  (.) pm first time only
 [(.)....... ........ ........ ........]
-----------------------------------------|
-----------------------------------------|
-----------------------------------------|
---66666666------------------------------|
---44444444-444444444-88888888-44444444--|
------------222222222-66666666-22222222--|

Guitar 2 (verse 2 only, comes in on 5th bar)

-----------------------------------------|
-----------------------------------------|
-----------------------------------------|
-----------------------------------------|
-----------------------------------------|
-----------------------------------------|

Prechorus

	X2 () on first time only 
-----------------------------------------|
-----------------------------------------|
---6~6~xxxx---------------(------------6)|
---6~6~xxxx--6~6~xxxx-4~4~(xxxx-6~6~-6-6)|
---4~4~xxxx--6~6~xxxx-4~4~(xxxx-6~6~-6-4)|
-------------4~4~xxxx-2~2~(xxxx-4~4~-4--)|

Chorus

	X2
-----------------------------------------|
-----------------------------------------|
---66666666666666------------------------|
---6666666666666666-8888888888886--------|
---4444444444444466-8888888888886~6~-----|
-----------------44-6666666666664~4~-----|

Verse 2
[ Tab from: http://www.guitartabs.cc/tabs/s/simple_plan/shut_up_tab_ver_3.html ]
Guitar 1
    X2  (.) pm first time only
 [(.)....... ........ ........ ........]
-----------------------------------------|
-----------------------------------------|
-----------------------------------------|
---66666666------------------------------|
---44444444-444444444-88888888-44444444--|
------------222222222-66666666-22222222--|

Guitar 2

come in on 5th bar, x4
-----------------------------------------|
-----------------------------------------|
-----------------------------------------|
-----------------------------------------|
---3-6-4-3-------------------------------|
-----------------------------------------|

Altered Intro

	X2
-------------------------------------------|
-------------------------------------------|
---66666666666666--------------------------|
---66666666666666-4-3-1---444444444444-6-6-|
---44444444444444-------4-444444444444-6~6~|
--------------------------222222222222-4~4~|

Bridge

Guitar 1
	Xhowmanyevertimes
-----------------------------------------|
-----------------------------------------|
-----6----6------------------------------|
----6----6-------------------------------|
---4-------------------------------------|
--------4--------------------------------|


Guitar 2
	Xhowmanyevertimes () at 2:14
-----------------------------------------|
-----------------------------------------|
--------------------(6h8p6)--------------|
-----------------------------------------|
---4h6p4~--------------------------------|
-----------------------------------------|
--------4--------------------------------|

Guitar 1

-----------------------------------------|
-----------------------------------------|
---6-6-----------------------------------|
---6-6-6-6-------------------------------|
---4-4-6-6------slide pick until chorus--|
-------4-4-------------------------------|

Altered Chorus

-----------------------------------------|
-----------------------------------------|
---6666666666666666----------------------|
---6666666666666666-4444444444444444-----|
---4444444444444444-4444444444444444-----|
--------------------2222222222222222-----|

End

-----------------------------------------|
-----------------------------------------|
---66-66---------------------------------|
---66-66---------------------------------|
---44-44---------------------------------|
-----------------------------------------|

SONG ORDER

Intro 0:00
Verse 0:15
Prechorus 0:27
Chorus 0:38
Intro 0:50
Verse 1:01
Prechorus 1:13
Chorus 1:25
Altered-Intro 1:37
Bridge 1:48
Chorus 2:25
Altered Chorus 2:46
End 2:58

Whole song: 3:01

And again..
BY Xx22xX
www.xanga.com/Xx22xX
its_brian_22@hotmail.com
Comments