Simple Plan - Shut Up Chords & Tabs

 

Shut Up Chords & Tabs

Simple Plan Chords & Tabs

Version: 1 Type: Tab 3 ratings
1 star 2 stars 3 stars 4 stars 5 stars
comments

Shut Up Tab

   
Simple Plan- Shut Up
Tabbed By: Guitaristman(Robert Groarke)
Standard Tuning(EBGDAE)
This is Pretty Close!
E|-----1-2-2-1-2-2-1-2-2-2-1-----1-2-2-1-2-2-1-2-2-----1-2-2-1-2-2-1-2-2-2-1----|
B|---------------------------4-2-------------------4-2-----------------------4-2|
G|------------------------------------------------------------------------------|
D|-4-4-4-4-4-4-4-4-4-4-4-4-4-2-2-2-2-2-2-2-2-4-4-4-4-4-4-4-4-4-4-4-4-4-4-4-2-2-2|
A|-6-6-6-6-6-6-6-6-6-6-6-6-6-4-4-4-4-4-4-4-4-6-6-6-6-6-6-6-6-6-6-6-6-6-6-6-4-4-4|
E|-6-6-6-6-6-6-6-6-6-6-6-6-6-6-6-6-6-6-6-6-6-6-6-6-6-6-6-6-6-6-6-6-6-6-6-6-6-6-6|


E|-1-2-2-1-2-2-1-2-2-1-2-2------|
B|------------------------------|
G|------------------------------|
D|-2-2-2-2-2-4-4-4-4-4-4-4-4-4-6|
A|-4-4-4-4-4-6-6-6-6-6-6-6-6-6-8|
E|-4-4-4-4-4-6-6-6-6-6-6-6-6-6-8|


E|----------------------------------------------------------------------|
B|----------------------------------------------------------------------|
G|----------------------------------------------------------------------|
D|-2-2-2-2-2-2-2-2-4-4-4-4-4-4-4-4-6-6-6-6-6-6-6-6-4-4-4-4-4-4-4-4-4-4-6|
A|-4-4-4-4-4-4-4-4-6-6-6-6-6-6-6-6-8-8-8-8-8-8-8-8-6-6-6-6-6-6-6-6-6-6-6|
E|-4-4-4-4-4-4-4-4-6-6-6-6-6-6-6-6-8-8-8-8-8-8-8-8-6-6-6-6-6-6-6-6-6-6-8|


E|----------------------------------------------------------------------|
B|----------------------------------------------------------------------|
G|----------------------------------------------------------------------|
D|-2-2-2-2-2-2-2-2-4-4-4-4-4-4-4-4-6-6-6-6-6-6-6-6-4-4-4-4-4-4-4-4-4-4-6|
A|-4-4-4-4-4-4-4-4-6-6-6-6-6-6-6-6-8-8-8-8-8-8-8-8-6-6-6-6-6-6-6-6-6-6-6|
E|-4-4-4-4-4-4-4-4-6-6-6-6-6-6-6-6-8-8-8-8-8-8-8-8-6-6-6-6-6-6-6-6-6-6-8|


E|-------------------------------------------------------|
B|-------------------------------------------------------|
G|-------------------------------------------------------|
D|-4-4-4--6-6-6--4-4-4--2-2-2--4-4-4--6-6-6--4-4-4--2-2-2|
A|-6-6-6--8-8-8--6-6-6--4-4-4--6-6-6--8-8-8--6-6-6--4-4-4|
E|-6-6-6--8-8-8--6-6-6--4-4-4--6-6-6--8-8-8--6-6-6--4-4-4|


E|----------------------------------------------------|
B|----------------------------------------------------|
G|-4-4-4-4------------------4-4-4-4-------------------|
D|-6-6-6-6-4-4--6-6-6-6-2-4-6-6-6-6-4-4-6-6-6-6-4-4-6-|
A|-6-6-6-6-6-6--8-8-8-8-4-6-6-6-6-6-6-6-8-8-8-8-6-6-8-|
E|---------6-6--8-8-8-8-4-6---------6-6-8-8-8-8-6-6-8-|


E|-----1-2-2-1-2-2-1-2-2-2-1-----1-2-2-1-2-2-1-2-2-----1-2-2-1-2-2-1-2-2-2-1----|
B|---------------------------4-2-------------------2-2-----------------------4-2|
G|------------------------------------------------------------------------------|
D|-4-4-4-4-4-4-4-4-4-4-4-4-4-2-2-2-2-2-2-2-2-4-4-4-4-4-4-4-4-4-4-4-4-4-4-4-2-2-2|
A|-6-6-6-6-6-6-6-6-6-6-6-6-6-4-4-4-4-4-4-4-4-6-6-6-6-6-6-6-6-6-6-6-6-6-6-6-4-4-4|
E|-6-6-6-6-6-6-6-6-6-6-6-6-6-6-6-6-6-6-6-6-6-6-6-6-6-6-6-6-6-6-6-6-6-6-6-6-6-6-6|


E|-1-2-2-1-2-2-1-2-2-1-2-2------|
B|------------------------------|
G|------------------------------|
D|-2-2-2-2-2-4-4-4-4-4-4-4-4-4-6|
A|-4-4-4-4-4-6-6-6-6-6-6-6-6-6-8|
E|-4-4-4-4-4-6-6-6-6-6-6-6-6-6-8|


E|----------------------------------------------------------------------|
B|----------------------------------------------------------------------|
G|----------------------------------------------------------------------|
D|-2-2-2-2-2-2-2-2-4-4-4-4-4-4-4-4-6-6-6-6-6-6-6-6-4-4-4-4-4-4-4-4-4-4-6|
A|-4-4-4-4-4-4-4-4-6-6-6-6-6-6-6-6-8-8-8-8-8-8-8-8-6-6-6-6-6-6-6-6-6-6-6|
E|-4-4-4-4-4-4-4-4-6-6-6-6-6-6-6-6-8-8-8-8-8-8-8-8-6-6-6-6-6-6-6-6-6-6-8|

[ Tab from: http://www.guitartabs.cc/tabs/s/simple_plan/shut_up_tab.html ]
E|-----1---------------1--------------1---------------1-----------------|
B|---4---4-2---------4---4-2--------4---4-2---------4---4-2-------------|
G|-1-1-1-1-1-1-1-1------------------------------------------------------|
D|-3-3-3-3-3-3-3-3-2-2-2-2-2-2-2-2-4-4-4-4-4-4-4-4-2-2-2-2-2-2-2-2-4-4-6|
A|-3-3-3-3-3-3-3-3-4-4-4-4-4-4-4-4-6-6-6-6-6-6-6-6-4-4-4-4-4-4-4-4-6-6-6|
E|-----------------4-4-4-4-4-4-4-4-6-6-6-6-6-6-6-6-4-4-4-4-4-4-4-4-6-6-8|


E|-------------------------------------------------------|
B|-------------------------------------------------------|
G|-------------------------------------------------------|
D|-4-4-4--6-6-6--4-4-4--2-2-2--4-4-4--6-6-6--4-4-4--2-2-2|
A|-6-6-6--8-8-8--6-6-6--4-4-4--6-6-6--8-8-8--6-6-6--4-4-4|
E|-6-6-6--8-8-8--6-6-6--4-4-4--6-6-6--8-8-8--6-6-6--4-4-4|


E|----------------------------------------------------|
B|----------------------------------------------------|
G|-4-4-4-4------------------4-4-4-4-------------------|
D|-6-6-6-6-4-4--6-6-6-6-2-4-6-6-6-6-4-4-6-6-6-6-4-4-6-|
A|-6-6-6-6-6-6--8-8-8-8-4-6-6-6-6-6-6-6-8-8-8-8-6-6-8-|
E|---------6-6--8-8-8-8-4-6---------6-6-8-8-8-8-6-6-8-|


E|-----1-2-2-1-2-2-1-2-2-2-1-----1-2-2-1-2-2-1-2-2-----1-2-2-1-2-2-1-2-2-2-1----|
B|---------------------------4-2-------------------2-2-----------------------4-2|
G|------------------------------------------------------------------------------|
D|-4-4-4-4-4-4-4-4-4-4-4-4-4-2-2-2-2-2-2-2-2-4-4-4-4-4-4-4-4-4-4-4-4-4-4-4-2-2-2|
A|-6-6-6-6-6-6-6-6-6-6-6-6-6-4-4-4-4-4-4-4-4-6-6-6-6-6-6-6-6-6-6-6-6-6-6-6-4-4-4|
E|-6-6-6-6-6-6-6-6-6-6-6-6-6-6-6-6-6-6-6-6-6-6-6-6-6-6-6-6-6-6-6-6-6-6-6-6-6-6-6|


E|-1-2-2-1-2-2-1-2-2-1-2-2-----|
B|-----------------------------|
G|-----------------------------|
D|-2-2-2-2-2-4-4-4-4-4-4-4-4-4-|
A|-4-4-4-4-4-6-6-6-6-6-6-6-6-6-|
E|-4-4-4-4-4-6-6-6-6-6-6-6-6-6-|


E|---1-----1-----1-----1-----1-----1---1-----1-----1-----1-----1-----1---1---|
B|-2---2-2---2-2---2-4---2-2---2-2---2---2-2---2-4---2-2---2-2---2-2---2---2-|
G|---------------------------------------------------------------------------|
D|---------------------------------------------------------------------------|
A|---------------------------------------------------------------------------|
E|---------------------------------------------------------------------------|


E|---1--|
B|-4---2|
G|------|
D|------|
A|------|
E|------|


E|----------------------|
B|----------------------|
G|----------------------|
D|---4-4------6-6----2--|
A|---6-6------8-8----4--|
E|---6-6------8-8----4--|


E|----------------------------------------------------|
B|----------------------------------------------------|
G|-4-4-4-4------------------4-4-4-4-------------------|
D|-6-6-6-6-4-4--6-6-6-6-2-4-6-6-6-6-4-4-6-6-6-6-4-4-6-|
A|-6-6-6-6-6-6--8-8-8-8-4-6-6-6-6-6-6-6-8-8-8-8-6-6-8-|
E|---------6-6--8-8-8-8-4-6---------6-6-8-8-8-8-6-6-8-|


E|----------------------------------------------------|
B|----------------------------------------------------|
G|-4-4-4-4------------------4-4-4-4-------------------|
D|-6-6-6-6-4-4--6-6-6-6-2-4-6-6-6-6-4-4-6-6-6-6-4-4-6-|
A|-6-6-6-6-6-6--8-8-8-8-4-6-6-6-6-6-6-6-8-8-8-8-6-6-8-|
E|---------6-6--8-8-8-8-4-6---------6-6-8-8-8-8-6-6-8-|


E|-----1-2-2-1-2-2-1-2-2-2-1-----1-2-2-1-2-2-1-2-2-----1-2-2-1-2-2-1-2-2-2-1----|
B|---------------------------4-2-------------------2-2-----------------------4-2|
G|------------------------------------------------------------------------------|
D|-4-4-4-4-4-4-4-4-4-4-4-4-4-2-2-2-2-2-2-2-2-4-4-4-4-4-4-4-4-4-4-4-4-4-4-4-2-2-2|
A|-6-6-6-6-6-6-6-6-6-6-6-6-6-4-4-4-4-4-4-4-4-6-6-6-6-6-6-6-6-6-6-6-6-6-6-6-4-4-4|
E|-6-6-6-6-6-6-6-6-6-6-6-6-6-6-6-6-6-6-6-6-6-6-6-6-6-6-6-6-6-6-6-6-6-6-6-6-6-6-6|


E|-1-2-2-1-2-2-1-2-2-1-2-2-----|
B|-----------------------------|
G|-----------------------------|
D|-2-2-2-2-2-4-4-4-4-4-4-4-4-4-|
A|-4-4-4-4-4-6-6-6-6-6-6-6-6-6-|
E|-4-4-4-4-4-6-6-6-6-6-6-6-6-6-|


E|-----|
B|-----|
G|-----|
D|-6-6-|
A|-8-8-|
E|-8-8-|

			

Comments