Simple Plan - Shut Up Chords & Tabs

 

Shut Up Chords & Tabs

Simple Plan Chords & Tabs

Version: 2 Type: Bass Tab 0 ratings
1 star 2 stars 3 stars 4 stars 5 stars
comments

Shut Up Bass Tab

SONG: SHUT UP
BAND: SIMPLE PLAN
ALBUM: STILL NOT GETTING ANY...
TABBED BY: SIXTY-NINE

INTRO (x2)
G------------------------------------------------------|
D------------------------------------------------------|
A------44444444444-------------------------------------|
E--4-4-------------4-4--66666666666--2-2---------------|

VERSE 1 (x1)
G------------------------------------------------------|
D------------------------------------------------------|
A------4~----------------------------------------------|
E--4-4------4-4----------------------------------------|

PRE-CHORUS (x1)
G------------------------------------------------------|
D------------------------------------------------------|
A---------------------4~-------------------------------|
E--666--444--222--444----666--444-2~2~/14--/4----------|

CHORUS 1 (x2)
G------------------------------------------------------|
D------------------------------------------------------|
A--44444444444-----------------------------------------|
E--------------4-4--66666666666--2-4-------------------|

INTRO (x2)
[ Tab from: http://www.guitartabs.cc/tabs/s/simple_plan/shut_up_btab_ver_2.html ]
VERSE 2 (x1)
G------------------------------------------------------|
D------------------------------------------------------|
A------4~-4444444--------------------------------------|
E--4-4------------22222222-44444444-22222222--4-4------|

PRE-CHORUS (x1)

CHORUS 1 (x2)

INTRO (x2)

BRIDGE (x1)
G------------------------------------------------------|
D------------------------------------------------------|
A--4~---------4~---------4~---------44-----------------|
E----44-2~-44---44-2~-44---44-2~-44---44--222222222222-|

CHORUS 2 (x1)
G------------------------------------------------------|
D------------------------------------------------------|
A----------------------44444444444---------------------|
E--/4-4-66666666666-2-4------------4-4-66666666666-2-4-|


CHORUS 3 (x1)
G------------------------------------------------------|
D------------------------------------------------------|
A--44444444444/11-11-----------------------------------|
E--------------------66666666666/16-14-----------------|

CHORUS 2(x1)

OUTRO (x1)
G------------------------------------------------------|
D------------------------------------------------------|
A--44444444444-----------------------44-44-------------|
E--------------4-4--66666666666--2-4-------------------|

/ = Slide
~ = Let ring
(www.sixty-nine-music.tk)
Comments