Simple Plan - Shut Up Chords & Tabs

 

Shut Up Chords & Tabs

Simple Plan Chords & Tabs

Version: 1 Type: Bass Tab 0 ratings
1 star 2 stars 3 stars 4 stars 5 stars
comments

Shut Up Bass Tab

BAND: SIMPLE PLAN
SONG: SHUT UP!
ALBUM: STILL NOT GETTING ANY...
Tabbed by (chids@hotmail.co.uk)

INTRO
G------------------------------------|
D------------------------------------| X2
A-4-44444444444----------------------|
E---------------2222222222222-4-4----|

VERSE
G-------------------------|
D-------------------------| X2 PALM MUTED
A-4444--------------------|
E------2222-4444-2222-----|

PRE-CHORUS
G---------------------------------------|
D---------------------------------------|
A---------------------4-----------------|
E-6666-4444-2222-4444---6666-4444-222---|
[ Tab from: http://www.guitartabs.cc/tabs/s/simple_plan/shut_up_btab.html ]
CHORUS
G--------------------------|
D--------------------------| X2
A-44444444-----------------|
E----------44-66666666-2-4-|

REPEAT INTRO

VERSE
G-------------------------|
D-------------------------| X2 PALM MUTED
A-4444--------------------|
E------2222-4444-2222-----|


REPEAT PRE CHORUS
REPEAT CHORUS
REPEAT INTRO

BRIGDE
G-------------------------|
Dó------------------------| X4
A-------------------------|
E------2----4-----2-------|

REPEAT CHORUS
AND THEN THE GUITAR 1 PLAYS THE INTRO THROUGHOUT CHORUS

SONG STRUCTURE:
INTRO
VERSE
PRE CHORUS
CHORUS
INTRO
VERSE
PRE CHORUS
CHORUS
BRIDGE
CHORUS
Comments