Simple Plan - Promise Chords & Tabs

 

Promise Chords & Tabs

Simple Plan Chords & Tabs

Version: 2 Type: Tab

Promise Tab

Promise (Solo) - Simple Plan
Tabbed by /...-The Great Johnstone...-\
Have fun with this tab it's the first I have submitted to a site but I am pretty
sure that its mostly correct. Give it a try...

h = hammer on
v = vibrato

e|--------------------------------6----------|'|
B|---6--------------------------6---9-6s11v--|'|
G|--6--8-6---6----------6-8-6-8--------------|'|
D|-8-------8---8-----6-8---------------------|'|
A|---------------6-8-------------------------|'|
E|-------------------------------------------|'|

The next part is very difficult and I dont quite have it completely worked out but
its something like this. Its mostly fingers, but you might want to pick it a bit if
your distortion doesn't have great sustain, or if your action is kind of high. Its
somewhere along these lines :
[ Tab from: http://www.guitartabs.cc/tabs/s/simple_plan/promise_tab_ver_2.html ]
e|---------------------------------------------11-13-|'|
B|------------------------------11--11-14-11-14------|'|
G|------------------------10-13---13-----------------|'|
D|---------------11--11-13---------------------------|'|
A|------11--11-13--13--------------------------------|'|
E|-11-13--13-----------------------------------------|'|

Good luck figuring that out. The next parts are pretty simple :

e|-13-11-9-11-9--s14-13------------------------------|'|
B|----------------------14---------------------------|'|
G|------------------------13-11-10-------------------|'|
D|---------------------------------11----------------|'|
A|---------------------------------------------------|'|
E|---------------------------------------------------|'|

e|----6-------6------------6-8h9----------------------|'|
B|-9-6-9-6-9-6-9-6-9-6----------9-6-------------------|'|
G|--------------------8-6-8--------8--6-6-6-6-5-5-5-5-|'|
D|----------------------------------8-x-x-x-x-x-x-x-x-|'|
A|------------------------------------4-4-4-4-3-3-3-3-|'|
E|----------------------------------------------------|'|

e|----6-------6-8-6-8-8s9v-|'|
B|-9-6-9-6-9-6-------------|'|
G|-------------------------|'|
D|-------------------------|'|
A|-------------------------|'|
E|-------------------------|'|