Simple Plan - Perfectwhole Chords & Tabs

 

Perfectwhole Chords & Tabs

Simple Plan Chords & Tabs

Version: 1 Type: Tab 0 ratings
1 star 2 stars 3 stars 4 stars 5 stars
comments

Perfectwhole Tab

   
here's perfect. now here's the catch (there's always a catch): it's not exactly "perfect" 
but it's close enough for me. it sounds good,i think that should count for something. 
i am POSITIVE on the intro/verse riff, but thebridge is a little shaky. sounds good though!
try it:


TUNE 6TH STRING DOWN HALF A STEP... trust me on this
e
B
G
D
A
Eb - should sound like 5th string 6th fret, but an octave lower.


intro riff
e-------------------------------
B--------------------6-8--------
G--9-8-9---------9-8------------
D--9-9-9--6-5-X--9-9-----6-5-X--
A--6-6-6--6-6-6--6-6-----6-6-6--
Eb--------5-5-5----------5-5-5--


intro solo riff
e-------------------------------------------
B-------------------------------------------
G--8-8-10-10-10-13-13-12-13-12-15-13-12-10--
D-------------------------------------------
A-------------------------------------------
Eb------------------------------------------


verse:
e----------------
B----------------
G--9-8-9---------
D--9-9-9--6-5-X--
A--6-6-6--6-6-6--
Eb--------5-5-5--

"hey dad look at me, think back and talk to me.
did i grow up according to plan?
and do you think i'm wasting my time doin' things i wanna do?
but it hurts when you disapprove all along."


ok here's the shaky, yet good, soundin' bridge i made! it sounds good and it's not hard at
all. -shrugs- try it and judge for yourself.


bridge
e-------
B-------
G------- play this for:
D---6----
A---6----
Eb--5----

"and now i try hard to make it,
i just wanna make you-"

e-----
B-----
G--0-- (that 0 is optional)
D--1-- then play this for:
A--1--
Eb-0--

"-proud. i'm never gonna be good enough for you."


e--------
B--------
G-------- 
D---6----
A---6----
Eb--5----

"can't pretend that i'm alright"

and i guess you just hold that for
"and you can't change me. cuz we-"


chorus


hold out:
e-----
B-----
G--9--
D--9--
A--6--
Eb----

"lost it all. nothing lasts forever, i'm sorry i can't be perfect."

then hit it again:

"now it's just too late, and we can't go back. i'm sorry i can't be perfect"

SOLO!
e------------------------------------------------------------------------------------------------
B------------------------------------------------------------------------------------------------
G--8-8-10-10-10-13-13-12-13-12-13-8-8-10-10-10-13-13-12-13-12-13-8-8-10-10-10-13-13-12-13-12-13--
D------------------------------------------------------------------------------------------------
A------------------------------------------------------------------------------------------------
Eb-----------------------------------------------------------------------------------------------

..continued solo
e----------------------------------------------
B----------------------------------------------
G--8-8-10-10-10-13-13-12-13-12-13-15-13-12-10--
D----------------------------------------------
A----------------------------------------------
Eb---------------------------------------------

go immediately back into verse...
[ Tab from: http://www.guitartabs.cc/tabs/s/simple_plan/perfectwhole_tab.html ]
"i try not to think about the pain i feel inside.
did you know you used to be my hero?
all the things you said to me, now seem so far away.
and it feels like you don't care anymore."

bridge:
"And now i try hard to make it,
i just wanna make you proud.
i'm never gonna be good enough for you.
i can't stand another fight,
and nothing's alright."

chorus: (still hold the one chord)
"cuz we lost it all. nothing lasts forever. i'm sorry i can't be perfect.
now it's just too late. and we can't go back. i'm sorry i can't be perfect."


figure out the strums yourself. i'm doin' a lot for you.
e--------------------------
B--------------------------
G--------------------------
D--6--------------8--------
A--6--------------8--------
Eb-5--------------7--------
"nothings gonna change the-"

e-------
B-------
G--9+--
D--9+-- before you hammer it (+), mute it 4 times
A--6+--
Eb------
"things that you said"

e--------------------------------------  + = hammer
B--------------------------------------   = slide down
G--------------------------9+---------  
D--6-------------8---------9+--------- once again, mute it 4 times, THEN hammer and slide
A--6-------------8---------6+---------
Eb-5-------------7---------------------
"nothings gonna make this right again." 

e-----------------------------------------------------------------------------------------------------
B-----------------------------------------------------------------------------------------------------
G--5--------------------------------------------------------------------------------------------------
D--5--------------------------x--8-------------------------------6------------------------------------
A--3--------------------------x--8-------------------------------6------------------------------------
Eb----------------------------x--7-------------------------------5------------------------------------
 please don't turn your back, i can't believe it's hard just to talk to you, but you don't understand.

slides down back into the intro verse riff:

e-------------------------
B--------------------6-8--
G--9-8-9---------9-8------
D--9-9-9--6-5-X--9-9------ 
A--6-6-6--6-6-6--6-6------
Eb--------5-5-5-----------


e---------------------------------------------------------------------------------
B---------------------------------------------------------------------------------
G-----------------9--------------------------------------5------------------------
D---6-------------9--------------------8-----------------5----------------6-------
A---6-------------6--------------------8-----------------3----------------6-------
Eb--5----------------------------------7----------------------------------5-------
          cuz we lost it all, nothing lasts forever, i'm sorry i can't be perfect.
   now it's just too late,    and we can't go back,  i'm sorry i can't be perfect. 
          cuz we lost it all, nothing lasts forever, i'm sorry i can't be perfect.
   now it's just too late,    and we can't go back,  i'm sorry i can't be perfect.

end on 566





there it is. my almost perfect Perfect. it's an awesome song. kinda gives you an idea that
you're not the only one in this world who's parents think they're perfect. don't do 
anything stupid guys. you'll regret it.
-mad


questions, comments, threats, thanks, email them to me gcmj3232@comcast.net
or i.m. me HardRockLiveATR5.
Comments