Simple Plan - Perfect World Chords & Tabs

 

Perfect World Chords & Tabs

Simple Plan Chords & Tabs

Version: 5 Type: Tab 0 ratings
1 star 2 stars 3 stars 4 stars 5 stars
comments

Perfect World Tab

Perfect World-Simple PLan
Written by: Kurindo...
This is my first tabs..

this tab guides you thru the whole song...


INTRO

Eb|-------------------------------------------|
Bb|-------------------------------------------|
Gb|------1-------1-------4-------4------------|
Db|----2---2---2---2---2---2---2---2----------|  
Ab|--4-------0-------2-------2----------------|
Eb|-------------------------------------------|

Eb|-----------------------------------|------------|
Bb|-----------------------------------|------------|
Gb|------1-------1-------4-------4----|--4-4-4-4---|
Db|----2---2---2---2---2---2---2---2--|--4-4-4-4---|  
Ab|--4-------0-------2-------2--------|--2-2-2-2---|
Eb|-----------------------------------|------------|
                                        -Pm-- -Strum Fast.


Eb|-------------------------------------------------|
Bb|-------------------------------------------------|
Gb|--6-6-/-13----------13---9-11-13-11--------------|
Db|--6-6-/-13----7-7-/-13---9-11-13-11-----9---8----|
Ab|--4-4-/-11----7-7-/-11---7-9-11--9-----7h9-6----|
Eb|--------------5-5-/------------------------------|

Eb|--------------------------------------------------|
Bb|--------------------------------------------------|
Gb|--6-6-/-13----------13---9-11-13-11------------6--|
Db|--6-6-/-13----7-7-/-13---9-11-13-11-----9---8--6--|
Ab|--4-4-/-11----7-7-/-11---7-9-11--9-----7h9-6--4--|
Eb|--------------5-5-/-------------------------------|



VERSE1


I never could've seen this far,
i never could've seen this coming,
seems like, my worlds falling apart.... yeah
why is everything so hard
i dont think that i can deal
Eb|-------------------------------------------|
Bb|-------------------------------------------|
Gb|------1-------1-------1-------4------------|
Db|----2---2---2---2---2---2---2---2----------|  x3
Ab|--4-------0--------------2-----------------|
Eb|------------------0------------------------|

with the things you said it just wont go away...
Eb|-----------------------------------|------------|
Bb|-----------------------------------|------------|
Gb|------1-------1-------4-------4----|--4-4-4-4---|
Db|----2---2---2---2---2---2---2---2--|--4-4-4-4---|  
Ab|--4-------0-------2-------2--------|--2-2-2-2---|
Eb|-----------------------------------|------------|
                                        -Pm-- -Strum Fast.

CHORUS

[Figure out strum pattern yourself..]

In a perfect world, this could never happen.
In a perfect world, you'd still be here
Eb|-----------------------|
Bb|-----------------------|
Gb|---6-------------------|
Db|---6----7----2----9----|x2
Ab|---4----7----2----9----|
Eb|--------5----0----7----|


And it makes no sense
i could juz pick up the piecse
but to you, this means nothing,nothign at all
Eb|----------------------|----------|------------|
Bb|----------------------|----------|------------|
Gb|---6------------------|----------|--4-4-4-4---|
Db|---6----7----2----9---|--7----9--|--4-4-4-4---|
Ab|---4----7----2----9---|--7----9--|--2-2-2-2---|
Eb|--------5----0----7---|--5----7--|------------|
                                    -Pm-- -Strum Fast.

Eb|-------------------------------------------------|
Bb|-------------------------------------------------|
Gb|--6-6-/-13----------13---9-11-13-11--------------|
Db|--6-6-/-13----7-7-/-13---9-11-13-11-----9---8----|
Ab|--4-4-/-11----7-7-/-11---7-9-11--9-----7h9-6----|
Eb|--------------5-5-/------------------------------|
[ Tab from: http://www.guitartabs.cc/tabs/s/simple_plan/perfect_world_tab_ver_5.html ]
Eb|-------------------------------------------|
Bb|-------------------------------------------|
Gb|--6-6-/-13----------13---9-11-13-11--------|
Db|--6-6-/-13----7-7-/-13---9-11-13-11--------|
Ab|--4-4-/-11----7-7-/-11---7-9-11--9--------|
Eb|--------------5-5-/------------------------|


VERSE 2

I used to think that i was strong
untill the day it all went wrong,
i think i need a miracle to make it thorugh.....yeah
I wished i could bring u bak, 
i wish that i could turn bak time.
Eb|-------------------------------------------|
Bb|-------------------------------------------|
Gb|------1-------1-------1-------4------------|
Db|----2---2---2---2---2---2---2---2----------|  x3
Ab|--4-------0--------------2-----------------|
Eb|------------------0------------------------|

cuz i cant let go, i juz cant find my way..yeah
wwihtout you i just cant find my way...
Eb|-----------------------------------|
Bb|-----------------------------------|
Gb|------1-------1-------4-------4----|
Db|----2---2---2---2---2---2---2---2--|    x2
Ab|--4-------0-------2-------2--------|
Eb|-----------------------------------|





CHORUS
IN a perfect world, this could never happen
in a perfect world,  you'd still be here
Eb|-----------------------|
Bb|-----------------------|
Gb|---6-------------------|
Db|---6----7----2----9----|x2
Ab|---4----7----2----9----|
Eb|--------5----0----7----|


and it makes no sense, 
i could just pick up the pieces
but to you, this means nothign,
nothing at all...
Eb|----------------------|---------------|
Bb|----------------------|---------------|
Gb|---6------------------|---------------|
Db|---6----7----2----9---|--7----9----7--|
Ab|---4----7----2----9---|--7----9----7--|
Eb|--------5----0----7---|--5----7----5--|


BRIDGE

I don't know what i should do now,   -
I don't konw where i should go.      - 
I'm stil here waiting for you        -  Acoustic/bass  plays...something..
im lost when you're not around       -
i need to hold on to you             -


i just can't let you.. 
Eb|--------------------|
Bb|--------------------|
Gb|--------------------|
Db|---7--7--7--7-------|
Ab|---7--7--7--7-------|
Eb|---5--5--5--5-------|
   Pm----------------

goooooooo, yeah ....yeah
Eb|-------------------------------------------|
Bb|-------------------------------------------|
Gb|--6-6-/-13----------13---9-11-13-11--------|
Db|--6-6-/-13----7-7-/-13---9-11-13-11--------| x2
Ab|--4-4-/-11----7-7-/-11---7-9-11--9--------|
Eb|--------------5-5-/------------------------|

CHORUS

IN a perfect world, this could never happen
in a perfect world,  you'd still be here
adn it makes no sense, i could juz pick up the pieces
Eb|-----------------------|
Bb|-----------------------|
Gb|---6-------------------|
Db|---6----7----2----9----|x3
Ab|---4----7----2----9----|
Eb|--------5----0----7----|

but to you, this means nothign
nothing at all....
you feel nothing..nothing at alll
Eb|----------|----------|
Bb|----------|----------|
Gb|----------|----------|
Db|--7----9--|--7----9--|
Ab|--7----9--|--7----9--|
Eb|--5----7--|--5----7--|


            [second time]:NOTHING AT ALLL........
Eb|-------------------------------------------|
Bb|-------------------------------------------|
Gb|--6-6-/-13----------13---9-11-13-11--------|
Db|--6-6-/-13----7-7-/-13---9-11-13-11--------| x2
Ab|--4-4-/-11----7-7-/-11---7-9-11--9--------|
Eb|--------------5-5-/------------------------|

--End--

Again,

Tabbed by Kurindo
If there are any errors, please contact me at kurindo@gmail.com

Thank you!
Enjoy!
Comments