Simple Plan - Perfect World Chords & Tabs

 

Perfect World Chords & Tabs

Simple Plan Chords & Tabs

Version: 3 Type: Tab 0 ratings
1 star 2 stars 3 stars 4 stars 5 stars
comments

Perfect World Tab

This song is from their new album Still Not Getting Any

Standard Tuning-EADGBe

[ Tab from: http://www.guitartabs.cc/tabs/s/simple_plan/perfect_world_tab_ver_3.html ]
e |--------------------------------------------------------------|
B |--------------------------------------------------------------|
G |------0--------------0----------------------------------------|
D |---1-----1-------1------1-------1---3---1-------1---3---1-----|
A |-3----------------------------1---------------1---------------|
E |--------------4-----------------------------------------------|




e |--------------------------------------------------------------|
B |--------------------------------------------------------------|
G |------0--------------0----------------------------------------|
D |---1-----1-------1------1-------1---3---1-------1---3---1-----|
A |-3----------------------------1---------------1---------------|
E |--------------4-----------------------------------------------|
Comments