Simple Plan - Perfect World Chords & Tabs

 

Perfect World Chords & Tabs

Simple Plan Chords & Tabs

Version: 1 Type: Tab 2 ratings
1 star 2 stars 3 stars 4 stars 5 stars
comments

Perfect World Tab

Simple Plan (hey, they come from Montreal/Quebec!)
PERFECT WORLD
---------------------------------------------------------
Tablature by Michel Belleau [michel.belleau@malaiwah.com]
Chosen effect: RECTO #39 on my Digitech RP2000

I decided to tab the lead guitar, I know there's a second one though.

INTRO (clean) 
Eb	+-------------------------------------------------------------------
Ab	|-------------------------------------------------------------------
db	|-11--------7--------9---------9------------------------------------
gb	|----9---9----9---9----9-11-9----9-11-9------(2 times)--------------
bb	|------9--------9---------------------------------------------------
Eb	+-------------------------------------------------------------------

INTRO (disto)
Eb	+---------------0-0-0-----------------------------------------------
Ab	|-4-4-4--0-0-0--2-2-2--2--2-2-2-------------------------------------
db	|-6-6-6--2-2-2--2-2-2--4--4-4-4--------------(2 times)--------------
gb	|-6-6-6--2-2-2---------4--4-4-4-------------------------------------
bb	|-------------------------------------------------------------------
Eb	+-------------------------------------------------------------------

VERSE (clean)
Eb	+-------------------------------------------------------------------
Ab	|--------------------7----------------------------------------------
db	|-11--------7------------------9------------------------------------
gb	|----9---9----9---9----9-11-9----9-11-9------(3 times)--------------
bb	|------9--------9---------------------------------------------------
Eb	+-------------------------------------------------------------------
	 	I never could have seen this far..

Eb	+-------------------------------------------------------------------
Ab	|-------------------------------------------------------------------
db	|-11--------7--------9---------9------------------------------------
gb	|----9---9----9---9----9-11-9----9-11-9-----------------------------
bb	|------9--------9---------------------------------------------------
Eb	+-------------------------------------------------------------------
		.. with the things you said..
[ Tab from: http://www.guitartabs.cc/tabs/s/simple_plan/perfect_world_tab.html ]
HOOK (disto)
Eb	+------------------0-0-0-0-------------------------0-0-0------------
Ab	|--4-4-4-4--0-0-0--2-2-2-2--2-2-2--4-4-4-4--0-0-0--2-2-2--2-2-2-----
db	|--6-6-6-6--2-2-2--2-2-2-2--4-4-4--6-6-6-6--2-2-2--2-2-2--4-4-4-----
gb	|--6-6-6-6--2-2-2-----------4-4-4--6-6-6-6--2-2-2---------4-4-4-----
bb	|-------------------------------------------------------------------
Eb	+-------------------------------------------------------------------
		In a Perfect World...

HOOK-out (disto)
Eb	+---------------0-0-0-----------------------------------------------
Ab	|-4-4-4--0-0-0--2-2-2--2--2-2-2-------------------------------------
db	|-6-6-6--2-2-2--2-2-2--4--4-4-4-------------------------------------
gb	|-6-6-6--2-2-2---------4--4-4-4-------------------------------------
bb	|-------------------------------------------------------------------
Eb	+-------------------------------------------------------------------
		... (no lyrics, second guitar plays over this)

VERSE (clean)

HOOK (disto)

(no guitar)

HOOK-out (disto)

HOOK (disto)

*** That's it!

LYRICS
------

I never could’ve seen this far
I never could’ve seen this coming
(It) seems like my world’s falling apart

* Yeah *

Why is everything so hard
I don’t think I can deal with the things you said
Just won’t go away

In a perfect world
This could never happen
In a perfect world
You’d still be here
And it makes no sense
I could just pick up the pieces
But to you
This means nothing
Nothing at all

I used to think that I was strong
Until the day it all went wrong
I think I need a miracle to make it through

* Yeah *

I pictured I could bring you back
I pictured I could turn back time
'Cause I can’t let go
I just can’t find my way
Yeah
Without you I just can’t find my way

In a perfect world
This could never happen
In a perfect world
You’d still be here
And it makes no sense
I could just pick up the pieces
But to you
This means nothing
Nothing at all

I don’t know what I should do now
I don’t know where I should go
I’m still here waiting for you
I’m lost when you’re not around
I need to hold on to you
I just can’t let you go

* Yeah Yeah * 

In a perfect world
This could never happen
In a perfect world
You’d still be here
And it makes no sense
I could just pick up the pieces
But to you
This means nothing
Nothing at all
You feel nothing, nothing at all

Nothing at all
Comments