Simple Plan - Perfect World Chords & Tabs

 

Perfect World Chords & Tabs

Simple Plan Chords & Tabs

Version: 2 Type: Bass Tab 0 ratings
1 star 2 stars 3 stars 4 stars 5 stars
comments

Perfect World Bass Tab

Band-Simple plan
song-perfect world
album-still not getting any
tuning-standard EADG
tabbed by-Ben williams

I think this version is in the right key or w/e, and has most of the notes missing from
other tabs. Most of  the other tabs r ok but I think this 1 sounds closer. I cant really
fit it w/ the right timing just listen 2 the cd 2 get the timing down. If u don't have
the cd crawl out from under the rock u r living under and get it! Its awesome!

Intro/main riff    00:12

G--------------------------------------------------------------------------|
D------5-----5---353-5-5p3-------5-----5----353-5-5p3----------------------|
A--33----11---6--------------6-33---11---6---------------6-3--3--3--3~-----|
E--------------------------------------------------------------------------|

Verse   00:37

G-----------------------------------------------------------------------|
D-----------------------------------------------------------------------|
A-----3-3-----------6-6---------8p6-3-3---------6-6---6-6/10101010------|
E-------------4-4----------6-6---------------4-4------------------------|

Chorus   00:49

G--------------------------------------------------------------------------------|
D--------------------------------------------------------------------------------|
A-----3-3-3-3----------6-6-6-6-----------3-3-3-3-----------6-6-6---6/10101010----|
E---------------4-4-4-4----------6-6-6-6-----------4-4-4-4---------6-------------|

Chorus cont:

G----------------------------------------------------------------------------------|
D----------------------------------------------------------------------------------|
A-----3-3-3-3----------6-6-6-6-----------3-3-3-3-3-3-3-3-6-6-6-6-6-6/10101010------|
E---------------4-4-4-4----------6-6-6-6-------------------------------------------|

Main riff   01:12

G---------------------------------------------------------|
D------5-----5---353-5-5p3--------5-----5----353-5~-------|
A--33----11---6--------------6-33----11---6---------------|
E---------------------------------------------------------|

Verse 1:34

G---------------------------------------------------------------------------------------------|
D---------------------------------------------------------------------------------------------|
A-----3-3-----------6-6---------8p6-3-3---------6-6---6-6---3-3-3-3-3-3-3-3-6-6-6-6-6-6-6/3---|
E-------------4-4----------6-6---------------4-4----------------------------------------------|

Chorus 1:52
[ Tab from: http://www.guitartabs.cc/tabs/s/simple_plan/perfect_world_btab_ver_2.html ]
G--------------------------------------------------------------------------------|
D--------------------------------------------------------------------------------|
A-----3-3-3-3----------6-6-6-6-----------3-3-3-3-----------6-6-6---6/10101010----|
E---------------4-4-4-4----------6-6-6-6-----------4-4-4-4---------6-------------|

Chorus cont:
G-----------------------------------------------------------------------|
D-----------------------------------------------------------------------|
A-----3-3-3-3----------6-6-6-6-----------3-3-3-3-3-3-3-3-6-6-6-6-6-6/3--|
E---------------4-4-4-4----------6-6-6-6--------------------------------|

Bridge 2:27

G---------------------------------------------------------------------------------------|
D---------------------------------------------------------------------------------------|
A-----3-------------6---------8p6-3-------------6----------8p6--3-------3-------3-------|
E-----------4-----------------------------4---------------------------4-------4------4--|

Bridge cont:

G----------------------|
D----------------------|
A--6-6-6-6-6-6-6-6-----|
E----------------------|


Main riff   2:50

G-----------------------------------------------------------|
D------5-----5---353-5-5p3--------5-----5----353~/5555------|
A--33----11---6--------------6-33----11---6-----------------|
E-----------------------------------------------------------|

Chorus   3:02


G------------------------------------------------------------------------------|
D------------------------------------------------------------------------------|
A-----3-3-3-3----------6-6-6-6-----------3-3-3-3-----------6-6-6---6/10101010--|
E---------------4-4-4-4----------6-6-6-6-----------4-4-4-4---------6-----------|

Chorus cont:

G---------------------------------------------------------------------|
D---------------------------------------------------------------------|
A--3-3-3-3----------6-6-6-6-----------3-3-3-3-3-3-3-3-6-6-6-6-6-6-6-6-|
E------------4-4-4-4----------6-6-6-6---------------------------------|

Chorus cont: (i think!)

G-----------------------------------------------|
D-----------------------------------------------|
A--3-3-3-3-3-3-3-3-6-6-6-6-6-6-6-6---3333-------|
E-----------------------------------------4444--|

Ending riff  3:33


G----------------------------------------------------|
D------5-----5---353-5-5p3--------5-----5----353-5~--|
A--33----11---6--------------6-33----11---6----------|
E----------------------------------------------------|
Comments