Simple Plan - Perfect Chords & Tabs

 

Perfect Chords & Tabs

Simple Plan Chords & Tabs

Version: 5 Type: Tab 0 ratings
1 star 2 stars 3 stars 4 stars 5 stars
comments

Perfect Tab

Simple Plan
Perfect

Alright, this song is really good, and I've been wanting to play this song for a 
long time.  This is all I've come up with.  It is somewhat close, but I will find a 
better way.

Strum lightly with thumb, with no distortion, and all tone knobs to 0.
[ Tab from: http://www.guitartabs.cc/tabs/s/simple_plan/perfect_tab_ver_5.html ]
E|--------------
B|--------------
G|--8-7-8-4-3-2-
D|--8-7-8-4-3-2-
A|--6-0-6-2-1-0-
E|--------------

E|--------------------
B|--------------------
G|--8-7-10/11-4-3-2---
D|--8-7-10/11-4-3-2---
A|--6-0-------2-1-0---
E|--------------------

It's probably not right, but what r ya gonna do. Try writing a better tab, do it.
Comments