Simple Plan - Perfect Chords & Tabs

 

Perfect Chords & Tabs

Simple Plan Chords & Tabs

Version: 3 Type: Tab 2 ratings
1 star 2 stars 3 stars 4 stars 5 stars
comments

Perfect Tab

Intro:
e|---------------------------------------------------------------------
B|---------------------------------------------------------------------
G|-9-8-9--------------9-8----11/13-------------------------------------------
D|-9-9-9---7-6-7----9-9---------------7-6--------------------------------------
A|-7-7-7---7-7-7----7-7---------------7-7-7------------------------------------
E|-----------5-5-5-----------------------5-5-5------------------------------------


Intro: (Distortion)
e|---------------------------------------------------------------------
B|---------------------------------------------------------------------
G|-999-88-999-----------------------999-88-999------------------------------
D|-999-99-999----777-66-777----999-99-999----777-66-777----------------
A|-777-77-777----777-77-777----777-77-777----777-77-777----------------
E|--------------------555-55-555-----------------------555-55-555----------------


Intro: (Lead Guitar)
e|--------------^------^-----------------------------------------------
B|--s10---12---15--14--14--15--14--(4x)--------------------------------
G|---------------------------------------------------------------------
D|---------------------------------------------------------------------
A|---------------------------------------------------------------------
E|---------------------------------------------------------------------


[ Tab from: http://www.guitartabs.cc/tabs/s/simple_plan/perfect_tab_ver_3.html ]
Verse 1: "Hey Dad, look at me...."
e|------------------------------------------------------------------------
B|-------------------------------------------------------------------------
G|-9-8-9--------------9-8----11/13--------------------------------------------
D|-9-9-9---7-6-7----9-9---------------7-6--------------------------------------
A|-7-7-7---7-7-7----7-7---------------7-7-7------------------------------------
E|----------5-5-5------------------------5-5-5------------------------------------



Pre-chorus: "And now, I try hard to make it...."
e|--------------------------------------------------------------------------------------
B|--------------------------------------------------------------------------------------
G|----666666666-------------9999999999-------------66666666------------
D|----777777777-------------9999999999-------------77777777-------------
A|----777777777-------------7777777777-------------77777777-------------
E|----555555555-------------------------------------------55555555------------



Chorus: "Now we lost it all..."
e|--------------------------------------------------------------------
B|--------------------------------------------------------------------
G|-99999------------66666------------------------------------------------
D|-99999--99999--66666--77777-----------------------------------------
A|-77777--99999--44444--77777-----------------------------------------
E|-----------77777------------55555-----------------------------------------



Verse 2: "I try not to think...."
e|-----------------------------------------------------------------------------------
B|---------------------------------------------------------------------------------
G|-9-8-9--------------9-8----11/13--------------------------------------------
D|-9-9-9---7-6-7----9-9--------------7-6--------------------------------------
A|-7-7-7---7-7-7----7-7--------------7-7-7------------------------------------
E|----------5-5-5-----------------------5-5-5------------------------------------


Repeat Pre-Chorus and Chorus


Bridge: "Nothings gonna change the things that you said..."
e|----------------------
B|----------------------
G|-666------------------
D|-666--999---5555------- repeat (4x)
A|-444--999---7777-------
E|--------777--7777-------
Comments