Simple Plan - Perfect Chords & Tabs

 

Perfect Chords & Tabs

Simple Plan Chords & Tabs

Version: 12 Type: Tab 0 ratings
1 star 2 stars 3 stars 4 stars 5 stars
comments

Perfect Tab

          Perrrrrrfect, tab, submitted by Brittany Baker
     is not perrrrrrfect, but its pretty darned close

                1|----------------------------------|
                2|----------------------------------|
                3|-9-8-9-------9-8-11---------------|
                4|-------7-6-2---------7-6-2--------|
                5|----------------------------------|
                6|----------------------------------|
                       intro ^
[ Tab from: http://www.guitartabs.cc/tabs/s/simple_plan/perfect_tab_ver_12.html ]
1|--0-0-2-2-2-5-4-4-4-5-4-0-0-2-2-2-5-4-4-4-5-4-0-0-2-2-2-5-4-4-4-7-5-|
2|--------------------------------------------------------------------|
3|--------------------------------------------------------------------|
4|--------------------------------------------------------------------|
5|--------------------------------------------------------------------|
6|--------------------------------------------------------------------|

1|--4-4-4-2-4-5-5-5-5-4-2-0-2-4-4-4-4-2-4-0-2-0-----|
2|--------------------------------------------------|
4|--------------------------------------------------|
5|--------------------------------------------------|
6|--------------------------------------------------|

  thants all i have right now, but i will add more on, just read it, and rate it 5 stars. please.....
Comments