Simple Plan - Perfect Chords & Tabs

 

Perfect Chords & Tabs

Simple Plan Chords & Tabs

Version: 1 Type: Tab 7 ratings
1 star 2 stars 3 stars 4 stars 5 stars
comments

Perfect Tab

   
Artist: Simple Plan
Title: Perfect
Album: No Pads, No Helmets...Just Balls!
Standard Tuning: E A D G B E
Tabbed by: Giovanni Dimaculangan
           gld_1832@hotmail.com

Intro:
e|---------------------------------------------------------------------
B|-----------------------7--9------------------------------------------
G|-9-8-9------------9-8------------------------------------------------
D|-9-9-9---7-6-7----9-9-------7-6--------------------------------------
A|-7-7-7---7-7-7----7-7-------7-7-7------------------------------------
E|---------5-5-5--------------5-5-5------------------------------------


Intro: (Distortion)
e|---------------------------------------------------------------------
B|---------------------------------------------------------------------
G|-999-88-999------------------999-88-999------------------------------
D|-999-99-999----777-66-777----999-99-999----777-66-777----------------
A|-777-77-777----777-77-777----777-77-777----777-77-777----------------
E|---------------555-55-555------------------555-55-555----------------


Intro: (Lead Guitar)
e|--------------^------^-----------------------------------------------
B|--s10---12---15--14--14--15--14--(4x)--------------------------------
G|---------------------------------------------------------------------
D|---------------------------------------------------------------------
A|---------------------------------------------------------------------
E|---------------------------------------------------------------------



Verse 1: "Hey Dad, look at me...."
e|---------------------------------------------------------------------
B|-----------------------7--9------------------------------------------
G|-9-8-9------------9-8------------------------------------------------
D|-9-9-9---7-6-7----9-9-------7-6--------------------------------------
A|-7-7-7---7-7-7----7-7-------7-7-7------------------------------------
E|---------5-5-5--------------5-5-5------------------------------------



Pre-chorus: "And now, I try hard to make it...."
e|----555555555------------------------------------55555555------------
B|----555555555-------------9999999999-------------55555555------------
G|----666666666-------------9999999999-------------66666666------------
D|----777777777-------------9999999999-------------77777777------------
A|----777777777-------------7777777777-------------77777777------------
E|----555555555------------------------------------55555555------------


[ Tab from: http://www.guitartabs.cc/tabs/s/simple_plan/perfect_tab.html ]
Chorus: "Now we lost it all..."
e|--------------------------------------------------------------------
B|--------------------------------------------------------------------
G|-99999---------66666------------------------------------------------
D|-99999--99999--66666--77777-----------------------------------------
A|-77777--99999--44444--77777-----------------------------------------
E|--------77777---------55555-----------------------------------------



Verse 2: "I try not to think...."
e|---------------------------------------------------------------------
B|-----------------------7--9------------------------------------------
G|-9-8-9------------9-8------------------------------------------------
D|-9-9-9---7-6-7----9-9-------7-6--------------------------------------
A|-7-7-7---7-7-7----7-7-------7-7-7------------------------------------
E|---------5-5-5--------------5-5-5------------------------------------


Repeat Pre-Chorus and Chorus


Bridge: "Nothings gonna change the things that you said..."
e|----------------------
B|----------------------
G|-666------------------
D|-666--999--5555------- repeat (4x)
A|-444--999--7777-------
E|------777--7777-------


This is the right version, hear the song and this tab is 100% correct.
Just figure it out correct and you'll play it well!!!


LYRICS:

[Verse 1]
Hey, Dad, look at me
Think back, and talk to me
Did I grow up according to plan?

And do you think I’m wasting my time
Doing things I wanna do?
But it hurts when you disapproved all along

And now I try hard to make it
I just wanna make you proud
I’m never gonna be good enough for
You can’t pretend that I’m alright
And you can’t change me

[Chorus]
‘Cause we lost it all
Nothin’ lasts forever
I’m sorry I can’t be perfect
Now it’s just too late
And we can’t go back
I’m sorry I can’t be perfect

[Verse 2]
I try not to think
About the pain I feel inside
Did you know you used to be my hero?

All the days you spent with me
Now seem so far away
And it feels like you don’t care any more

And now I try hard to make it
I just wanna make you proud
I’m never gonna be good enough for you
I can’t stand another fight
And nothing’s all right

[Chorus]
‘Cause we lost it all
And nothin’ lasts forever
I’m sorry I can’t be perfect
Now it’s just too late
And we can’t go back
I’m sorry I can’t be perfect

[Bridge]
Nothing’s gonna change the things that you said
And nothing’s gonna make this right again
Please don’t turn your back
I can’t believe it’s hard just to talk to you
But you don’t understand

[Chorus (2x)]
‘Cause we lost it all
And nothin’ lasts forever
I’m sorry I can’t be perfect
Now it’s just too late
And we can’t go back
I’m sorry I can’t be perfect 



There you have it! Enjoy!

Peace!
Comments