Simple Plan - Perfect Chords & Tabs

 

Perfect Chords & Tabs

Simple Plan Chords & Tabs

Version: 5 Type: Bass Tab 0 ratings
1 star 2 stars 3 stars 4 stars 5 stars
comments

Perfect Bass Tab

I don't know the tuning but I'm sure about the tabs

Tabber:Joaquin T.

rate me please...
if you find a mistake, E-mail me at rockstarintraining_36@yahoo.com

Intro (x2)
|-----9-------9---------------------------|
|---------------------7-------------------|
|-777---77-77-----------------------------|
|-----------------555---55-55----0-5-7-5--|

Prechorus
|--------------------------------------------------------------------------|
|--------------------------------------------------------------------------|
|--------------------------------------------------------------------------|
|-2-22-4-0-5-0-5-0-5--0-5-7-0--5-7-0-57-07-5-2-22-4-0-5-05-05-05-05-050570-|
[ Tab from: http://www.guitartabs.cc/tabs/s/simple_plan/perfect_btab_ver_5.html ]
Chorus
|--------------------------------------------------------------------------|
|------------------9----9-11----7------------------9----9-11----7----------|
|--------------------------------------------------------------------------|
|----0------------------------------------0--------------------------------|

do Intro
do Prechorus
do Chorus

Bridge
|---------------------------------9s0-------------------------------9s0----|
|--------------------------------------------------------------------------|
|--------------------------------------------------------------------------|
|--5-5-5-5-7-7-7--0-0-0-0-0000---------5-5-5-5-7-7-7--0-0-0-0-0000---------|

Cont. of Bridge
|-----------------------------------------------------|
|-----------------------------------------------------|
|-----------------------------------------------------|
|---9-9-9-9-9-9-9--7-7-7-7-7-7-7--5-5-5-5-555555575---|

End Riff
|--------------------------------------------------------------------------|
|--------------------------------------------------------------------------|
|------------66-6-6666--444-4-44---------------------7-6-4s12--------------|
|--77-7-777-----------------------555-55-55-do x4--------------------------|

That's it...enjoy :]
Comments