Simple Plan - Perfect Chords & Tabs

 

Perfect Chords & Tabs

Simple Plan Chords & Tabs

Version: 3 Type: Bass Tab 0 ratings
1 star 2 stars 3 stars 4 stars 5 stars
comments

Perfect Bass Tab

Band : Simple Plan
Song : Perfect (bass Tablature)
Tabbed By: Troalance17

~ let ring
s slide

Intro:
G-------------------------------------------------------------|
D-------------------------------------------------------------|
A---6---6-----------------------------------------------------|(2x)
E-----6---8---6---8-------------------------------------------|

G-------------------------------------------------------------|
D-------------------------------------------------------------|
A---666666----------------------------------------------------|
E------------666666---888888----11-11-11-11-11-11-------------|

(Hey dad...)
G-------------------------------------------------------------|
D-------------------------------------------------------------|
A---6~--6666--------------------------------------------------|(4x)
G-------------6~--6666---8~--8888---11~--111111111------------|

(Cuz we lost...)
G-------------------------------------------------------------|
D-------------------------------------------------------------|
A---6~---6~---------------------------------------------------|
E------6~-----8~---6~---8~------------------------------------|

(Now is just to late...)
G-------------------------------------------------------------|
D-------------------------------------------------------------|
A---6~--6666--------------------------------------------------|
G-------------6~--6666---8~--8888-----------------------------|
[ Tab from: http://www.guitartabs.cc/tabs/s/simple_plan/perfect_btab_ver_3.html ]
G-------------------------------------------------------------|
D-------------------------------------------------------------|
A---666666----------------------------------------------------|
E------------666666888888----11-11-11-11-11-11---------------|

(I try not...)
G-------------------------------------------------------------|
D-------------------------------------------------------------|
A---6~--6666--------------------------------------------------|(4x)
G-------------6~--6666---8~--8888---11~--111111111------------|

(cuz we lost...)
G-------------------------------------------------------------|
D-------------------------------------------------------------|
A---6~---6~---------------------------------------------------|
E------6~-----8~---6~---8~------------------------------------|

(now is just...)
G-------------------------------------------------------------|
D-------------------------------------------------------------|
A---6~--6666--------------------------------------------------|
G-------------6~--6666---8~--8888-----------------------------|

(nothing's gonna)
G------------------------|
D------------------------|
A------------------------|(4x)
G-------666666s- 888888--|(only the last time let ring)

G-------------------------------------------------------------|
D-------------------------------------------------------------|
A---6~---6~---------------------------------------------------|
E------6~-----8~---6~---8~------------------------------------|

(Cuz we lost...)
G-------------------------------------------------------------|
D-------------------------------------------------------------|
A---666666----------------------------------------------------|(4x)
E------------666666s-888888s-11-11-11-11-11-11----------------|

feel free to correct this tab...thanx...(electrogenesisband)
Comments