Simple Plan - Perfect Chords & Tabs

 

Perfect Chords & Tabs

Simple Plan Chords & Tabs

Version: 1 Type: Bass Tab 1 rating
1 star 2 stars 3 stars 4 stars 5 stars
comments

Perfect Bass Tab

first intro is just guitar 
second intro (ligt distortion)

E--------------------5-5-5-4-4-5-5-5----------------------------
A --7-7-7-6-6-7-7-7------------------------------------------
D -------------------------------------------------------------
G--------------------------------------------------------------
x 2

verses

E--------5-4-5-----------5-4-5---------------------------------
A--7-6-7--------7-6---------------------------------------------
D--------------------4-6----------------------------------------
G--------------------------------------------------------------

pre-chorus
[ Tab from: http://www.guitartabs.cc/tabs/s/simple_plan/perfect_btab.html ]
E--------------------------------------------------------------
A---5------5-----7----7---5-------------------------------------
D-----7------7-----9----9---7---------------------------------
G-------7------7-----9----9---7---------------------------------

chorus

E------------7-----------------------5-----5----------------------
A--7-----------9--9-----4-4------------7------7----------------------
D----9--9------------9---------6-6-------7-------7-----------------
G----------9----------------6------6-----------------------------

bridge

E-----------------------------------------------------------------
A---4----7------5----------------------------------------------------
D-----6-----9-----7-7-----repeat-x4----------------------------------
G-------6-----9-------7-------------------------------------------

that's basicly it
I'm not sure how accurate it is, but it will fit in 
I'm sure you will be very pleased with this tab
if you have any questions e-mail me at guitarmatt2008@yahoo.com
Comments