Simple Plan - My Christmas List Chords & Tabs

 

My Christmas List Chords & Tabs

Simple Plan Chords & Tabs

Version: 2 Type: Bass Tab 0 ratings
1 star 2 stars 3 stars 4 stars 5 stars
comments

My Christmas List Bass Tab

Intro
G|--------------------------------------------------------------------|
D|--------------------------------------------------------------------|
A|4444444444-------44-4-44-4-------44-4-44-4-------44-4---------------|
E|-----------22-44-----------22-44-----------22-44--------444444------|
Verse x2
G|--------------------------------------------------------------------|
D|--------------------------------------------------------------------|
A|444444444444444-----------------------------------------------------|
E|----------------2222222222-444444444--------------------------------|
Pre-chorus 
G|--------------------------------------------------------------------|
D|--------------------------------------------------------------------|
A|4444----------------------------------------------------------------|
E|-----4-4444-2-22222222-4~-------------------------------------------|
Chorus
G|--------------------------------------------------------------------|
D|--------------------------------------------------------------------|
A|4444----------------4444------44444444------------------------------|
E|-----4444-2222-4444------2222---------------------------------------|
Chorus continued 
G|--------------------------------------------------------------------|
D|--------------------------------------------------------------------|
A|4444----------------4~------44444444--------------------------------|
E|-----4444-2222-4444-----4~-----------2~-----------------------------|
Intro short
G|--------------------------------------------------------------------|
D|--------------------------------------------------------------------|
A|44-4-44-4-------44-4-44-4-------------------------------------------|
E|----------22-44----------22-44--------------------------------------|
Bridge
G|--------------------------------------------------------------------|
D|--------------------------------------------------------------------|
A|4~----4~----4444444-----------------4~------------------------------|
E|--4~2~--4~2---------4444444-2222222---4~2~--------------------------|
Chorus long 
G|--------------------------------------------------------------------|
D|--------------------------------------------------------------------|
A|-------444444----4444----------------4444------44444444-------------|
E|444444--------22------4444-2222-4444------2222----------------------|
Chorus long continued 
G|--------------------------------------------------------------------|
D|--------------------------------------------------------------------|
A|4444-----------------4~------44444444----------44444444-------------|
E|-----4444-2222-4444------4~-----------22222222----------2~----------|
Outro x3
G|--------------------------------------------------------------------|
D|--------------------------------------------------------------------|
A|4444----------------------------------------------------------------|
E|-----4444-2222-4444-------------------------------------------------|
Outro x1
G|--------------------------------------------------------------------|
D|--------------------------------------------------------------------|
A|4444----------------------------------------------------------------|
E|-----4444-22222222-4~-----------------------------------------------|

This is a good Christmas song. It's 100% correct i looked everywhere for
this tab and it's no where so i did it myself it's an easy song to play.
Questions comments e-mail me at Gauthiert12@hotmail.com have fun and merry
christmas.
[ Tab from: http://www.guitartabs.cc/tabs/s/simple_plan/my_christmas_list_btab_ver_2.html ]
Comments