Simple Plan - My Christmas List Chords & Tabs

 

My Christmas List Chords & Tabs

Simple Plan Chords & Tabs

Version: 1 Type: Bass Tab 0 ratings
1 star 2 stars 3 stars 4 stars 5 stars
comments

My Christmas List Bass Tab

Tabbed By Stefan: Im sure theres corrections but
hey its the only bass tab of this song.
Intro
G|---------------------------------------------------------------------------|
D|---------------------------------------------------------------------------|
A|4444444444-------44-444-4-------44-444-4-------4-44------------------------|
E|-----------22-44----------22-44----------22-44------444444-----------------|
[ Tab from: http://www.guitartabs.cc/tabs/s/simple_plan/my_christmas_list_btab.html ]
Verse
G|---------------------------------------------------------------------------|
D|---------------------------------------------------------------------------|
A|444444444444444----------------------X2-----4------------------------------|
E|----------------2222222222-444444444---------4--1-22222222-4---------------|
Cont.
G|---------------------------------------------------------------------------|
D|---------------------------------------------------------------------------|
A|---------------------------------------------------------------------------|
E|1-22222222-4---------------------------------------------------------------|
Chorus
G|---------------------------------------------------------------------------|
D|---------------------------------------------------------------------------|
A|4444----------------4444--------4444---------------------4---4-------------|
E|-----4444-2222-4444------2222-4------4444-2222-4444-2222-------------------|
Bridge
G|---------------------------------------------------------------------------|
D|---------------------------------------------------------------------------|
A|4----4----4444444-----------------4----------------------------------------|
E|--4-2--4-2--------4444444-2222222---4-2------------------------------------|

The rest is just up above you can figure that out.
Comments