Simple Plan - My Alien Chords & Tabs

 

My Alien Chords & Tabs

Simple Plan Chords & Tabs

Version: 4 Type: Tab 1 rating
1 star 2 stars 3 stars 4 stars 5 stars
comments

My Alien Tab

   
Hey this is my first tab and I only have the intro....but it seems right...give me news on it pls!


E---------------------------
B---------------------------
G---------------------------
D----6-6-5-5----6-6-5-5-----
A-6-6-------6-6-------------
E---------------------------
[ Tab from: http://www.guitartabs.cc/tabs/s/simple_plan/my_alien_tab_ver_4.html ]
E-----------------
B-----------------
G-7777777777/8/10-
D-7777777777/8/10-
A-5555555555/6/8--
E-----------------

E-----------------------------
B-----------------------------
G----------5/3/5/3------------
D-55555555-5/3/5/3------------
A-55555555-3/1/3/1------------
E-33333333--------------------
Comments