Simple Plan - Meet You There Chords & Tabs

 

Meet You There Chords & Tabs

Simple Plan Chords & Tabs

Version: 2 Type: Tab 0 ratings
1 star 2 stars 3 stars 4 stars 5 stars
comments

Meet You There Tab

   
--------------------------------------------------------------------------------
                 SIMPLE PLAN-Meet You There
--------------------------------------------------------------------------------
TABBED BY:  Rob (freeskier20@hotmail.com)
Not a hard song to figure out if you set your mind to it! ENJOY!

STANDARD TUNING  (E, A, D, G, B, E)
[ Tab from: http://www.guitartabs.cc/tabs/s/simple_plan/meet_you_there_tab_ver_2.html ]
Intro/verse
|---------------------------------------------------------------------| X6
|---------------------------------------------------------------------|
|-3-3-3-4-4-4-4-4--3-3-3-4-4-4-4-4------------------------------------|
|-----------------------------------1-1-1-2-2-2-2-2--1-1-1-2-2-2-2-2--|
|---------------------------------------------------------------------|
|---------------------------------------------------------------------|
Interlude "youre gone away..."
   Am        Em
|-0-0-0--|-0-0-0--|------0-|------0-|---------------------------------| X2
|-1-1--1-|-0-0--1-|-----1--|-----1--|---------------------------------|
|-2-2----|-0-0----|--------|--------|---------------------------------|
|-2-2----|-2-2----|-3-3----|-3-3----|---------------------------------|
|-0-0----|-2-2----|-3-3----|-3-3----|---------------------------------|
|--------|-0-0----|-1-1----|-1-1----|---------------------------------|
Chorus "I'll meet you there..."
         C             F         C            F
|-0---0---------|-1-1-0---|-0---0---------|-1-1-0---|
|-1-----1-----1-|-1-----3-|-1-----1-----1-|-1-----3-|
|-0-0-------0---|-2-------|-0-0-------0---|-2-------|
|-2-------2-----|-3-------|-2-------2-----|-3-------|
|-3-------------|---------|-3-------------|---------|
|-0-------------|---------|-0-------------|---------|

Intro/Verse X4

INTERLUDE X2

Chorus X2

Solo thingy
|---------------------------------------------------------------| X4
|---------------------------------------------------------------|
|---------------------------------------------------------------|
|-22-/-66-/-99-/-44-xxx-----------------------------------------|
|-22-/-66-/-99-/-44-xxx-----------------------------------------|
|-00-/-44-/-77-/-22-xxx-----------------------------------------|

|---------------------------------------------------------------| X4
|---------------------------------------------------------------|
|---------------------------------------------------------------|
|-22-/-66-/-99-/-44-444-----------------------------------------|
|-22-/-66-/-99-/-44-444-----------------------------------------|
|-00-/-44-/-77-/-22-222-----------------------------------------|

[Pause]

|---------------------------------------------------------------| X4
|---------------------------------------------------------------|
|---------------------------------------------------------------|
|-22-/-66-/-99-/-44---------------------------------------------|
|-22-/-66-/-99-/-44---------------------------------------------|
|-00-/-44-/-77-/-22---------------------------------------------|

CHORUS X3

END ON
|---------------------------------------------------------------|
|---------------------------------------------------------------|
|-4-------------------------------------------------------------|
|-4-------------------------------------------------------------|
|-2-------------------------------------------------------------|
|---------------------------------------------------------------|
Comments