Simple Plan - Jump Chords & Tabs

 

Jump Chords & Tabs

Simple Plan Chords & Tabs

Version: 1 Type: Bass Tab 0 ratings
1 star 2 stars 3 stars 4 stars 5 stars
comments

Jump Bass Tab

   
Standard tuning: E A D G
Tabbed by: Joaqui T.

This is a song from Simple Plan's new album...
it's not yet on the radio so you're gonna have to buy the CD

:] enjoy

intro (4x)
|---------------------------------------------------------------------------|
|---------------------------------------------------------------------------|
|---------------------------------------------------------------------------|
|----0-0--0-0--0-0--0-0-----5-5----------7-7--7-7---------------------------|

verse (2x)
|-------------------------------------|                                      
|-------------------------------------|
|-------------------------------------|
|----0-0-0---0-0-0---5-5-5---7-7-7----|

Prechorus (2x)
|-------------------------------------|
|-------------------------------------|
|-------------------------------------|
|----5-5-5---5-5-5---7-7-7---7-7-7----|
[ Tab from: http://www.guitartabs.cc/tabs/s/simple_plan/jump_btab.html ]
Chorus
|---------------------------------------------------------------------------|
|---------------------------------------------------------------------------|
|---------------------------------------------------------------------------|
|---0-0-----0-0-----5-5-----7-7 3x---5-5--5-5--5-5--5-5-----7-7--7-7--------|

Cont. Chorus
|--------------|
|--------------|
|--------------|
|---6h7-7-6h7--|

Repeat verse 4x
Repeat Prechorus
Repeat Chorus and cont. Chorus

Bridge
|------------------------------------|
|------------------------------------|
|------------------------------------|
|-----0-----------------7-------5 2x-|

Cont. Bridge
|-----------------------------------------------------------------|
|-----------------------------------------------------------------|
|-----------------------------------------------------------------|
|----0-0-0--0-0-0--0-0-0--7-7-7--5-5-5--5-5-5--5-5-5--5-5-5 2x----|

Repeat Chorus 3x and cont. Chorus 2x

Repeat intro 3x

That's about it
;] enjoy
Comments