Simple Plan - Im Just A Kid Chords & Tabs

 

Im Just A Kid Chords & Tabs

Simple Plan Chords & Tabs

Version: 9 Type: Tab 0 ratings
1 star 2 stars 3 stars 4 stars 5 stars
comments

Im Just A Kid Tab

-----------------------------------------------------------
			    Simple Plan-I'm Just Kid
-----------------------------------------------------------

By:LaZyPuNK381

Intro/Verse:
e|--------------------------------------------------------|
B|---3-----3-----3------3---------------------------------|
G|-------2------------2-----------------------------------|
D|-0------------------------------------------------------|
A|------------0-------------------------------------------|
E|-----3-----------3--------------------------------------|
[ Tab from: http://www.guitartabs.cc/tabs/s/simple_plan/im_just_a_kid_tab_ver_9.html ]
Chorus:
e|--------------------------------------------------------|
B|--------------------------------------------------------|
G|-7-7-7--------------------------------------------------|
D|-7-7-7-5-5-5-5-7-7-7-5-5-5-5----------------------------|
A|-5-5-5-5-5-5-5-7-7-7-5-5-5-5----------------------------|
E|-------3-3-3-3-5-5-5-3-3-3-3-----------------------------|

Bridge:
e|--------------------------------------------------------|
B|--------------------------------------------------------|
G|---------------------------------7-7-7-7-7-7-7-7--------|
D|-5-5-5-5-5-5-5-5-7-7-7-7-7-7-7-7-7-7-7-7-7-7-7-7-7--5-7-|
A|-5-5-5-5-5-5-5-5-7-7-7-7-7-7-7-7-5-5-5-5-5-5-5-5-7--5-7-|
E|-3-3-3-3-3-3-3-3-5-5-5-5-5-5-5-5-----------------5--3-5-|

e|--------------------------------------------------------|
B|--------------------------------------------------------|
G|---------------------------------7----------------------|
D|-5-5-5-5-5-5-5-5-7-7-7-7-7-7-7-7-7---------7------------|
A|-5-5-5-5-5-5-5-5-7-7-7-7-7-7-7-7-5---------7------------|
E|-3-3-3-3-3-3-3-3-5-5-5-5-5-5-5-5-----------5------------|


===========================================================
Comments